Rammstein

home > Rammstein

Gib Mir Deine Augen Tab

Rammstein

Difficulty: nolevelnolevel

by mar%2Dgobbo

tuner correct add songbook print version text version save to e-mail
chordsukulelecavacokeyboardtabbassdrumsharmonicsflute Guitar Pro
chords

Gib Mir Deine Augen

  		

Intro 
e-----------------------------------------------------------------| 
B-----------------------------------------------------------------| 
G-----------------------------------------------------------------| 
D---------------0--------------0--------------0-------------------| 
A--0-0-0----0-0-0-0-0-0----0-0-0-0-0-0----0-0-0-0-0-0------0-0-0--| 
D--0-0-0----0-0-0-0-0-0----0-0-0-0-0-0----0-0-0-0-0-0------0-0-0--| x1 
PM . . .    . .   . . .    . .   . . .    . .   . . .      . . . 

e----------------------------------------------------------------------------| 
B----------------------------------------------------------------------------| 
G----------------------------------------------------------------------------| 
D---------------0--------------0--------------0------------------------------| 
A--0-0-0----0-0-0-0-0-0----0-0-0-0-0-0----0-0-0-0-0-0------12-13-12-13~~~~\--| 
D--0-0-0----0-0-0-0-0-0----0-0-0-0-0-0----0-0-0-0-0-0------------------------| x1 
PM . . .    . .   . . .    . .   . . .    . .   . . . 
 

Main riff 
e-----------------------------------------------------------------| 
B-----------------------------------------------------------------| 
G-----------------------------------------------------------------| 
D-----------------------------------------------------------------| 
A---------------5--------------5--------------5-------------------| 
D--0-0-0----0-0-0-0-0-0----0-0-0-0-0-0----0-0-0-0-0-0------0-0-0--| x3 
PM . . .    . .   . . .    . .   . . .    . .   . . .      . . . 

e------------------------------------------------------| 
B------------------------------------------------------| 
G------------------------------------------------------| 
D------------------------------------------------------| 
A---------------5--------------5--------------5--------| 
D--0-0-0----0-0-0-0-0-0----0-0-0-0-0-0----0-0-0-0-0-0--| x1 
PM . . .    . .   . . .    . .   . . .    . .   . . . 
 

Chorus 1 
e----------------------------------------------------------------------------| 
B----------------------------------------------------------------------------| 
G----------------------------------------------------------------------------| 
D--------------------0-------------------0-------------------0---------------| 
A--0-0-0--12-13--0-0-0-0-0-0--13-12--0-0-0-0-0-0--12-13--0-0-0-0-0-0--13-12--| 
D--0-0-0---------0-0-0-0-0-0---------0-0-0-0-0-0---------0-0-0-0-0-0---------| x1 
Pm . . .         . .   . . .         . .   . . .         . .   . . . 

e-------------------------------------------------------------------------------------| 
B-------------------------------------------------------------------------------------| 
G-------------------------------------------------------------------------------------| 
D------0-----------------0-----------------0------------------------------------------| 
A--0-0-0-0-0-0--7-8--0-0-0-0-0-0--7-5--0-0-0-0-0-0--1-0--0-0-0------------------------| 
D--0-0-0-0-0-0-------0-0-0-0-0-0-------0-0-0-0-0-0-------0-0-0----8-7-8-7--10-7-10-7--| x1 
Pm . .   . . .       . .   . . .       . .   . . .       . . . 
 

Main riff 2 
e-----------------------------------------------------------------| 
B-----------------------------------------------------------------| 
G-----------------------------------------------------------------| 
D---------------0--------------0--------------0-------------------| 
A--0-0-0----0-0-0-0-0-0----0-0-0-0-0-0----0-0-0-0-0-0------0-0-0--| 
D--0-0-0----0-0-0-0-0-0----0-0-0-0-0-0----0-0-0-0-0-0------0-0-0--| x1 
PM . . .    . .   . . .    . .   . . .    . .   . . .      . . . 

e-----------------------------------------------------------------| 
B-----------------------------------------------------------------| 
G-----------------------------------------------------------------| 
D-----------------------------------------------------------------| 
A---------------5--------------5--------------5-------------------| 
D--0-0-0----0-0-0-0-0-0----0-0-0-0-0-0----0-0-0-0-0-0------0-0-0--| x3 
PM . . .    . .   . . .    . .   . . .    . .   . . .      . . . 

e------------------------------------------------------| 
B------------------------------------------------------| 
G------------------------------------------------------| 
D------------------------------------------------------| 
A---------------5--------------5--------------5--------| 
D--0-0-0----0-0-0-0-0-0----0-0-0-0-0-0----0-0-0-0-0-0--| x1 
PM . . .    . .   . . .    . .   . . .    . .   . . . 
 

Chorus 2 
e----------------------------------------------------------------------------| 
B----------------------------------------------------------------------------| 
G----------------------------------------------------------------------------| 
D--------------------0-------------------0-------------------0---------------| 
A--0-0-0--12-13--0-0-0-0-0-0--13-12--0-0-0-0-0-0--12-13--0-0-0-0-0-0--13-12--| 
D--0-0-0---------0-0-0-0-0-0---------0-0-0-0-0-0---------0-0-0-0-0-0---------| x1 
Pm . . .         . .   . . .         . .   . . .         . .   . . . 

e-------------------------------------------------------------------------------------| 
B-------------------------------------------------------------------------------------| 
G-------------------------------------------------------------------------------------| 
D------0-----------------0-----------------0------------------------------------------| 
A--0-0-0-0-0-0--7-8--0-0-0-0-0-0--7-5--0-0-0-0-0-0--1-0--0-0-0------------------------| 
D--0-0-0-0-0-0-------0-0-0-0-0-0-------0-0-0-0-0-0-------0-0-0----8-7-8-7--10-7-10-7--| x1 
Pm . .   . . .       . .   . . .       . .   . . .       . . . 

e--------------------------------------------------| 
B--------------------------------------------------| 
G--------------------------------------------------| 
D--0~~~~~~3~~~~~~8~~~~~~5~~~~~~--------------------| 
A--0~~~~~~3~~~~~~8~~~~~~5~~~~~~--------------------| 
D--0~~~~~~3~~~~~~8~~~~~~5~~~~~~8-7-8-7--10-8-10-8--| x1 
 

Main riff 3 
e-----------------------------------------------------------------| 
B-----------------------------------------------------------------| 
G-----------------------------------------------------------------| 
D-----------------------------------------------------------------| 
A--0-0-0----0-0-0-0-0-0----0-0-0-0-0-0----0-0-0-0-0-0------0-0-0--| 
D--0-0-0----0-0-0-0-0-0----0-0-0-0-0-0----0-0-0-0-0-0------0-0-0--| x1 
PM . . .    . . . . . .    . . . . . .    . . . . . .      . . . 

e-----------------------------------------------------------------| 
B-----------------------------------------------------------------| 
G-----------------------------------------------------------------| 
D---------------0--------------0--------------0-------------------| 
A--0-0-0----0-0-0-0-0-0----0-0-0-0-0-0----0-0-0-0-0-0------0-0-0--| 
D--0-0-0----0-0-0-0-0-0----0-0-0-0-0-0----0-0-0-0-0-0------0-0-0--| x1 
PM . . .    . .   . . .    . .   . . .    . .   . . .      . . . 

e-----------------------------------------------------------------------| 
B-----------------------------------------------------------------------| 
G-----------------------------------------------------------------------| 
D---------------0--------------0--------------0-------------------------| 
A--0-0-0----0-0-0-0-0-0----0-0-0-0-0-0----0-0-0-0-0-0------0-0-0-0-0-0--| 
D--0-0-0----0-0-0-0-0-0----0-0-0-0-0-0----0-0-0-0-0-0------0-0-0-0-0-0--| x1 
PM . . .    . .   . . .    . .   . . .    . .   . . .      . . . . . . 
 

clean Bridge 
e-----------------------------------------------------| 
B-----------------------------------------------------| 
G-----------------------------------------------------| 
D--3-2-0-7---3-3---3-2-0-5---3-2-0-3---3-3---3-2-0-2--| 
A-----------------------------------------------------| 
D-----------------------------------------------------| x1 

e-----------------------------------------------------------| 
B-----------------------------------------------------------| 
G-----------------------------------------------------------| 
D--3-3---3-2-0-7---3-3---3-2-0-5---3-2-0-3---3-3---3-2-0-2--| 
A-----------------------------------------------------------| 
D-----------------------------------------------------------| x3 
 

end Riff 
e----------------------------------------| 
B----------------------------------------| 
G----------------------------------------| 
D--0~~~~~~3~~~~~~8~~~~~~5~~~~~~----------| 
A--0~~~~~~3~~~~~~8~~~~~~5~~~~~~----------| 
D--0~~~~~~3~~~~~~8~~~~~~5~~~~~~/-7~~~~~~-| 

e-----------------------------------------| 
B-----------------------------------------| 
G-----------------------------------------| 
D--0~~~~~~3~~~~~~8~~~~~~5~~~~~~-----------| 
A--0~~~~~~3~~~~~~8~~~~~~5~~~~~~-----------| 
D--0~~~~~~3~~~~~~8~~~~~~5~~~~~~/-19~~~~~~-| 
 
The end 
	  

Search Paypal
auto scroll beats size up size down change color hide chords drawings
tab show chords e-chords YouTube Clip e-chords hide all tabs e-chords go to top tab