Ramin Djawadi

Warrior Of Light

Ramin Djawadi

tabs

by  PAULLET3

save to print version add songbook text version e-mail correct tuner
chordsukulelecavacokeyboardtabbassdrumsharmonicaflute Guitar Pro
close

there isn't a video lesson for this song

chords

Warrior Of Light

	  		  
Intro  

(Synth effect) 

Guitar 1 

e|--------------------|--------------------|--------------------|--------------------| 
B|--------------------|--------------------|--------------------|--------------------| 
G|--------------------|--------------------|--------------------|--------------------| 
D|--5~----------------|--4~----------------|--------------------|--2~----------------| 
A|--------------------|--------------------|--0~----------------|--------------------| 
E|--------------------|--------------------|--------------------|--------------------| 

e|--------------------|--------------------|--------------------|--------------------| 
B|--------------------|--------------------|--------------------|--------------------| 
G|--------------------|--------------------|--------------------|--------------------| 
D|--5~----------------|--4~----------------|--------------------|--2~----------------| 
A|--------------------|--------------------|--3~----------------|--------------------| 
E|--------------------|--------------------|--------------------|--------------------| 

e|--------------------|--------------------|--------------------|--------------------| 
B|--------------------|--------------------|--------------------|--------------------| 
G|--------------------|--------------------|--------------------|--------------------| 
D|--5~----------------|--4~----------------|--------------------|--------------------| 
A|--------------------|--------------------|--0~----------------|--2~----------------| 
E|--------------------|--------------------|--------------------|--------------------| 

e|--------------------|--------------------|--------------------|--------------------| 
B|--------------------|--------------------|--------------------|--------------------| 
G|--------------------|--------------------|--------------------|--2-----------------| 
D|--5~----------------|--4~----------------|--------------------|--2-----------------| 
A|--------------------|--------------------|--------------------|--0-----------------| 
E|--------------------|--------------------|--------------------|--------------------| 


Part 1 


Guitar 1 
   
e|--------------------|--------------------|--------------------|--------------------| 
B|--------------------|--------------------|--------------------|--------------------| 
G|--2-----------------|--4-----------------|--5-----------------|--------------------| 
D|--2-----------------|--4-----------------|--5-----------------|--------------------| 
A|--0-----------------|--2-----------------|--3-----------------|--------------------| 
E|--------------------|--------------------|--------------------|--------------------| 

Guitar 2 

e|--------------------|--------------------|--------------------|--------------------| 
B|--------------------|--------------------|--------------------|--------------------| 
G|--5~----------------|--4~----------------|--------------------|--2~----------------| 
D|--------------------|--------------------|--3~----------------|--------------------| 
A|--------------------|--------------------|--------------------|--------------------| 
E|--------------------|--------------------|--------------------|--------------------| 



Guitar 1 

e|--------------------|--------------------|--------------------|--------------------| 
B|--------------------|--------------------|--------------------|--------------------| 
G|--2-----------------|--4-----------------|--5-----------------|--------------------| 
D|--2-----------------|--4-----------------|--5-----------------|--------------------| 
A|--0-----------------|--2-----------------|--3-----------------|--------------------| 
E|--------------------|--------------------|--------------------|--------------------| 

Guitar 2 

e|--------------------|--------------------|--------------------|--------------------| 
B|--------------------|--------------------|--------------------|--------------------| 
G|--5~----------------|--4~----------------|--------------------|--2~----------------| 
D|--------------------|--------------------|--2~----------------|--------------------| 
A|--------------------|--------------------|--------------------|--------------------| 
E|--------------------|--------------------|--------------------|--------------------| 



Guitar 1 

e|--------------------|--------------------|--------------------|--------------------| 
B|--------------------|--------------------|--------------------|--------------------| 
G|--2-----------------|--4-----------------|--5-----------------|--------------------| 
D|--2-----------------|--4-----------------|--5-----------------|--------------------| 
A|--0-----------------|--2-----------------|--3-----------------|--------------------| 
E|--------------------|--------------------|--------------------|--------------------| 

Guitar 2 

e|--------------------|--------------------|--------------------|--------------------| 
B|--------------------|--------------------|--------------------|--------------------| 
G|--5~----------------|--4~----------------|--------------------|--2~----------------| 
D|--------------------|--------------------|--2~----------------|--------------------| 
A|--------------------|--------------------|--------------------|--------------------| 
E|--------------------|--------------------|--------------------|--------------------| 


Part 2 


Guitar 1 

e|--------------------|--------------------|--------------------|--------------------| 
B|--------------------|--------------------|--------------------|--------------------| 
G|--2-----------------|--4-----------------|--5-----------------|--------------------| 
D|--2-----------------|--4-----------------|--5-----------------|--------------------| 
A|--0-----------------|--2-----------------|--3-----------------|--------------------| 
E|--------------------|--------------------|--------------------|--------------------| 

Guitar 2 

e|--------------------|--------------------|--------------------|--------------------| 
B|--------------------|--------------------|--------------------|--------------------| 
G|--5~-------4~-------|-----------2~-------|--5~-------4~-------|-----------2~-------| 
D|--------------------|--2~----------------|--------------------|--3~----------------| 
A|--------------------|--------------------|--------------------|--------------------| 
E|--------------------|--------------------|--------------------|--------------------| 



Guitar 1 

e|--------------------|--------------------|--------------------|--------------------| 
B|--------------------|--------------------|--------------------|--------------------| 
G|--2-----------------|--4-----------------|--5-----------------|--------------------| 
D|--2-----------------|--4-----------------|--5-----------------|--------------------| 
A|--0-----------------|--2-----------------|--3-----------------|--------------------| 
E|--------------------|--------------------|--------------------|--------------------| 

Guitar 2 

e|--------------------|--------------------|--------------------|--------------------| 
B|--------------------|--------------------|--------------------|--------------------| 
G|--5~-------4~-------|-----------2~-------|--5~-------4~-------|-----------2~-------| 
D|--------------------|--2~----------------|--------------------|--3~----------------| 
A|--------------------|--------------------|--------------------|--------------------| 
E|--------------------|--------------------|--------------------|--------------------| 


Part 3 


Guitar 1 

e|--------------------|--------------------|--------------------|--------------------| 
B|--------------------|--------------------|--------------------|--------------------| 
G|--2-----------------|--4-----------------|--5-----------------|--------------------| 
D|--2-----------------|--4-----------------|--5-----------------|--------------------| 
A|--0-----------------|--2-----------------|--3-----------------|--------------------| 
E|--------------------|--------------------|--------------------|--------------------| 

Guitar 2 

e|--------------------|--------------------|--------------------|--------------------| 
B|--------------------|--------------------|--------------------|--------------------| 
G|--------------------|--------------------|--------------------|--------------------| 
D|--------------------|--------------------|--------------------|--------------------| 
A|--------------------|--5~----------------|--------------------|--6~----------------| 
E|--8~-------7~-------|-----------5~-------|--8~-------7~-------|-----------5~-------| 



Guitar 1 

e|--------------------|--------------------|--------------------|--------------------| 
B|--------------------|--------------------|--------------------|--------------------| 
G|--2-----------------|--4-----------------|--5-----------------|--------------------| 
D|--2-----------------|--4-----------------|--5-----------------|--------------------| 
A|--0-----------------|--2-----------------|--3-----------------|--------------------| 
E|--------------------|--------------------|--------------------|--------------------| 

Guitar 2 

e|--------------------|--------------------|--------------------|--------------------| 
B|--------------------|--------------------|--------------------|--------------------| 
G|--------------------|--------------------|--------------------|--------------------| 
D|--------------------|--------------------|--------------------|--------------------| 
A|--------------------|--5~----------------|--------------------|--6~----------------| 
E|--8~-------7~-------|-----------5~-------|--8~-------7~-------|-----------5~-------| 


Outro  


Guitar 1 
   
e|--------------------|--------------------|--------------------|--------------------| 
B|--------------------|--------------------|--------------------|--------------------| 
G|--2-----------------|--------------------|--------------------|--------------------| 
D|--2-----------------|--------------------|--------------------|--------------------| 
A|--0-----------------|--------------------|--------------------|--------------------| 
E|--------------------|--------------------|--------------------|--------------------| 

Guitar 2 

e|--------------------|--------------------|--------------------|--------------------| 
B|--------------------|--------------------|--------------------|--------------------| 
G|--------------------|--4~----------------|--------------------|--2~----------------| 
D|--------------------|--------------------|--3~----------------|--------------------| 
A|--------------------|--------------------|--------------------|--------------------| 
E|--5~----------------|--------------------|--------------------|--------------------| 


Guitar 1 
   
e|--------------------|--------------------|--------------------|--------------------| 
B|--------------------|--------------------|--------------------|--------------------| 
G|--2-----------------|--------------------|--------------------|--------------------| 
D|--2-----------------|--------------------|--------------------|--------------------| 
A|--0-----------------|--------------------|--------------------|--------------------| 
E|--------------------|--------------------|--------------------|--------------------| 

Guitar 2 

e|--------------------|--------------------|--------------------|--------------------| 
B|--------------------|--------------------|--------------------|--------------------| 
G|--5~----------------|--4~----------------|--------------------|--2~----------------| 
D|--------------------|--------------------|--3~----------------|--------------------| 
A|--------------------|--------------------|--------------------|--------------------| 
E|--------------------|--------------------|--------------------|--------------------| 



Guitar 1 
   
e|--------------------|--------------------|--------------------|--------------------| 
B|--------------------|--------------------|--------------------|--------------------| 
G|--2-----------------|--------------------|--------------------|--------------------| 
D|--2-----------------|--------------------|--------------------|--------------------| 
A|--0-----------------|--------------------|--------------------|--------------------| 
E|--------------------|--------------------|--------------------|--------------------| 

Guitar 2 

e|--------------------|--------------------|--------------------|--------------------| 
B|--------------------|--------------------|--------------------|--------------------| 
G|--5~----------------|--4~----------------|--------------------|--2~----------------| 
D|--------------------|--------------------|--2~----------------|--------------------| 
A|--------------------|--------------------|--------------------|--------------------| 
E|--------------------|--------------------|--------------------|--------------------| 



Guitar 1 
   
e|--------------------|--------------------|--------------------|--------------------| 
B|--------------------|--------------------|--------------------|--------------------| 
G|--2-----------------|--------------------|--------------------|--------------------| 
D|--2-----------------|--------------------|--------------------|--------------------| 
A|--0-----------------|--------------------|--------------------|--------------------| 
E|--------------------|--------------------|--------------------|--------------------| 

Guitar 2 

e|--------------------|--------------------|--------------------|--------------------| 
B|--------------------|--------------------|--------------------|--------------------| 
G|--5~----------------|--4~----------------|--2~----------------|--------------------| 
D|--------------------|--------------------|--------------------|--------------------| 
A|--------------------|--------------------|--------------------|--------------------| 
E|--------------------|--------------------|--------------------|--------------------| 


Don't forget to rate this tab. Thanks! 

************************************ 

| ~  Vibrato 

************************************ 
		  

auto scroll beats size up size down change color hide chords drawings
tab show chords e-chords YouTube Clip e-chords hide all tabs e-chords go to top tab

share