Ramin Djawadi

The Kings Arrival Pt2

Ramin Djawadi

tabs

by  ADALGOMES

save to print version add songbook text version e-mail correct tuner
chordsukulelecavacokeyboardtabbassdrumsharmonicaflute Guitar Pro
close

there isn't a video lesson for this song

chords

The Kings Arrival Pt2

	  		
Part 1 

Guitar 1 

e|-------------|-------------|-------------|-------------|-------------|-------------| 
B|-------------|-------------|-------------|-----3--4----|-----3--4----|-----6--4--3-| 
G|--5-5--------|-5--5--5--5--|--5--5--5--5-|--5--------5-|--5--------5-|--5----------| 
D|-------------|-------------|-------------|-------------|-------------|-------------| 
A|-------------|-------------|-------------|-------------|-------------|-------------| 
E|-------------|-------------|-------------|-------------|-------------|-------------| 

Guitar 2 

e|-------------|-------------|-------------|-------------|-------------|-------------| 
B|-------------|-------------|-------------|-------------|-------------|-------------| 
G|-------------|-------------|-----------5-|--5--5--5--5-|--5--5--5--5-|--5--5--5--5-| 
D|-------------|-------------|-----------5-|-----------5-|-----------5-|-------------| 
A|-------------|-------------|-----------3-|-----------3-|-----------3-|-------------| 
E|-------------|-------------|-------------|-------------|-------------|-------------| 




Guitar 1 

e|-------------|-------------|-------------|-------------|-------------|--3-----6--3-| 
B|-------------|----4--------|-----3--4----|-----6--4--3-|-----3--4----|-------------| 
G|-----2--3--5-|--------5----|--5--------5-|--5----------|--5----------|-------------| 
D|--5----------|-------------|-------------|-------------|-------------|-------------| 
A|-------------|-------------|-------------|-------------|-------------|-------------| 
E|-------------|-------------|-------------|-------------|-------------|-------------| 

Guitar 2 

e|-------------|-------------|-------------|-------------|-------------|-------------| 
B|-------------|-------------|-------------|-------------|-------------|-------------| 
G|--5--5--5--5-|--------5----|--5--5--5--5-|--5--5--5--5-|--5--5--5--5-|--5--5--5--5-| 
D|-------------|--------5----|-----------5-|-----------5-|-------------|-----------5-| 
A|-------------|--------3----|-----------3-|-----------3-|-------------|-----------3-| 
E|-------------|-------------|-------------|-------------|-------------|-------------| 



Guitar 1 

e|--3--5--6--3-|------8----3-|--3--5--6--8-|------11---8-|-----8--8--8-|----8-----8--| 
B|-------------|-------------|-------------|-------------|-------------|-------------| 
G|-------------|-------------|-------------|-------------|-------------|-------------| 
D|-------------|-------------|-------------|-------------|-------------|-------------| 
A|-------------|-------------|-------------|-------------|-------------|-------------| 
E|-------------|-------------|-------------|-------------|-------------|-------------| 

Guitar 2 

e|-------------|-------------|-------------|-------------|-------------|-------------| 
B|-------------|-------------|-------------|-------------|-------------|-------------| 
G|--5--5--5--5-|--5--5--5--5-|--5--5--5--5-|--5--5--5--5-|--5--5--5--5-|--5--5--5--5-| 
D|-----------5-|-----------5-|-------------|-----------5-|-----------5-|-----------5-| 
A|-----------3-|-----------3-|-------------|-----------3-|-----------3-|-----------3-| 
E|-------------|-------------|-------------|-------------|-------------|-------------| 


Part 2 

Guitar 1 

e|-------------|-------------|-------------|-3-----------|-------------| 
B|-----3--4----|--6----------|-----3--4----|----6--4-4-3-|------4------| 
G|--5----------|--------5----|--5----------|-------------|--5-------5--| 
D|-------------|-------------|-------------|-------------|-------------| 
A|-------------|-------------|-------------|-------------|-------------| 
E|-------------|-------------|-------------|-------------|-------------| 

Guitar 2 

e|-------------|-------------|-------------|-------------|-------------| 
B|--------4----|--6----------|--------4----|-8--6----4---|------4------| 
G|--------3----|--5-----5----|--------3----|-7--5----3---|--5---3---5--| 
D|--------1----|--3-----5----|--------1----|-5--3----1---|--5---1---5--| 
A|-------------|--------3----|-------------|-------------|--3-------3--| 
E|-------------|-------------|-------------|-------------|-------------| 



Guitar 1 

e|-------------|-------------| 
B|-----3--4----|--6----------| 
G|--5----------|--------5----| 
D|-------------|-------------| 
A|-------------|-------------| 
E|-------------|-------------| 

Guitar 2 

e|-------------|-------------| 
B|--------4----|--6----------| 
G|--------3----|--5-----5----| 
D|--------1----|--3-----5----| 
A|-------------|--------3----| 
E|-------------|-------------| 


Part 3 

Guitar 1 

e|--6-5-6-5----|-------------|--6-5-6-8----|-------------|--6-5-6-5--8-| 
B|--4-4-4-4----|-------------|--4-4-4------|-------------|--4-4-4-4-10-| 
G|-------------|-------------|-------------|-------------|-------------| 
D|-------------|-------------|-------------|-------------|-------------| 
A|-------------|-------------|-------------|-------------|-------------| 
E|-------------|-------------|-------------|-------------|-------------| 

Guitar 2 

e|-------------|-------------|-------------|-------------|-------------| 
B|-------------|-------------|-------------|------8-6----|-------------| 
G|-------------|--8-7-8-10---|-------------|--8-7--------|-------------| 
D|-------------|-------------|-------------|------5-3----|-----------7-| 
A|-------------|--6-5-6-8----|-------------|--6-5--------|-----------7-| 
E|-------------|-------------|-------------|-------------|-----------5-| 



Guitar 1 

e|-8--------8--|-------------|-------------|-------------|-------------|-------------| 
B|-10----10----|-------------|-------------|--------4----|-------------|-------------| 
G|-----9-------|--2--3--5----|-------------|--5--3--5----|-------------|-------------| 
D|-------------|--2--5--7----|-------------|--7--5-------|-------------|-------------| 
A|-------------|-------------|-------------|-------------|-------------|-------------| 
E|-------------|-------------|-------------|-------------|-------------|-------------| 

Guitar 2 

e|-------------|-------------|-------------|-------------|-------------|-------------| 
B|-------------|-------------|-------------|--------4----|-------------|-------------| 
G|-------------|-----3--5----|-------------|--5--3--3----|-------------|-------------| 
D|-7-----------|--7--3--5----|-------------|--5--3--1----|-------------|-------------| 
A|-7----7-6-5--|--7--1--3----|---3-5-6-----|--3--1-------|-6-5-3-3-5-6-|-------------| 
E|-5-5-8-----8-|--5----------|-------------|-------------|-------------|--3-5-6------| 



Guitar 1 

e|-------------|-------------| 
B|--8--7--8----|--11-10--11--| 
G|--5--5--5----|--8--8---8---| 
D|--5--4--5----|--8--7---8---| 
A|-------------|-------------| 
E|-------------|-------------| 

Guitar 2 

e|-------------|-------------| 
B|-------------|-------------| 
G|-------------|-------------| 
D|--5--4--5----|--8--7--8----| 
A|--5--5--5----|--8--8--8----| 
E|--3--2--3----|--6--5--6----| 


Part 4 

Guitar 1 

e|-------------|-------------|-------------|-------------|-------------| 
B|-------------|-------------|-------------|------3-4-6--|--4-3--------| 
G|--5--4--5----|--5--4--5----|--5--4--5----|-5-7---------|------5------| 
D|-------------|-------------|-------------|-------------|-------------| 
A|-------------|-------------|-------------|-------------|-------------| 
E|-------------|-------------|-------------|-------------|-------------| 

Guitar 2 

e|-------------|-------------|-------------|-------------|-------------| 
B|-------------|-------------|-------------|-------------|-------------| 
G|--10-10-10---|--8--8--8----|--7--7--7----|-5-7------7--|--9-10-------| 
D|-------------|-------------|-------------|-------------|-------------| 
A|--8--8--8----|--6--6--6----|--5--5--5----|-3-5------5--|--7-8--------| 
E|-------------|-------------|-------------|-------------|-------------| 



Guitar 1 

e|-------------|--------3----|-----------3-|-3-5-6-------|--6-5-3------| 
B|--------6----|--4----------|--6--3--6----|-------------|-------------| 
G|--5--4-------|-----5-------|-------------|-------------|-------------| 
D|-------------|-------------|-------------|-------------|-------------| 
A|-------------|-------------|-------------|-------------|-------------| 
E|-------------|-------------|-------------|-------------|-------------| 

Guitar 2 

e|-------------|-------------|-------------|-------------|-------------| 
B|-------------|-------------|-------------|-------------|-------------| 
G|--10-10-10---|--8--8--8----|--7--7--7----|-------------|-------------| 
D|-------------|-------------|-----------5-|-5-5-5-5-----|--5-5-5-5----| 
A|--8--8--8----|--6--6--6----|--5--5--5--5-|-5-5-5-5-----|--5-5-5-5----| 
E|-------------|-------------|-----------3-|-3-3-3-3-----|--3-3-3-3----| 



Guitar 1 

e|-3-5-6-------|-------------| 
B|-------3-5-6-|--3-5-6-3----| 
G|-------------|-------------| 
D|-------------|-------------| 
A|-------------|-------------| 
E|-------------|-------------| 

Guitar 2 

e|-------------|-------------| 
B|-------------|-------------| 
G|-------------|-------------| 
D|-5-5-5-5-----|--5-5-5-5----| 
A|-5-5-5-5-----|--5-5-5-5----| 
E|-3-3-3-3-----|--3-3-3-3----| 


Part 5 

Guitar 1 

e|-------------|--3----------|-------------|-5---3-------|-------------| 
B|--3--5--6----|--------3----|--3--5--6----|--------6-6--|--3---6---3--| 
G|-------------|-------------|-------------|-------------|-------------| 
D|-------------|-------------|-------------|-------------|-------------| 
A|-------------|-------------|-------------|-------------|-------------| 
E|-------------|-------------|-------------|-------------|-------------| 

Guitar 2 

e|-------------|-------------|-------------|-------------|-------------| 
B|--------6----|--8----------|--------6----|-10--8--6----|------6------| 
G|--------5----|--7-----7----|--------5----|-9---7--5----|--7---5---7--| 
D|--------3----|--5-----7----|--------3----|-7---5--3----|--7---3---7--| 
A|-------------|--------5----|-------------|-------------|--5-------5--| 
E|-------------|-------------|-------------|-------------|-------------| 



Guitar 1 

e|-------------|--3----------| 
B|--3--5--6----|--------3----| 
G|-------------|-------------| 
D|-------------|-------------| 
A|-------------|-------------| 
E|-------------|-------------| 

Guitar 2 

e|-------------|-------------| 
B|--------6----|--8----------| 
G|--------5----|--7-----7----| 
D|--------3----|--5-----7----| 
A|-------------|--------5----| 
E|-------------|-------------| 
 
		  

auto scroll beats size up size down change color hide chords drawings
tab show chords e-chords YouTube Clip e-chords hide all tabs e-chords go to top tab

share