Ramin Djawadi

home > Ramin Djawadi

Light Of The Seven Tab

Ramin Djawadi

Difficulty: nolevelnolevel

by marcnagel

tuner correct add songbook print version text version save to e-mail
chordsukulelecavacokeyboardtabbassdrumsharmonicsflute Guitar Pro
chords

Light Of The Seven

	  
e|----------11--11-----------------4---4------------------11---11------------------| 
B|--------8---8---8---8----------1---1---1---1----------8----8---8----8------------| 
G|---------------------------------------------------------------------------------| 
D|---10------------10----------3-----------3-------10--------------10-----10-------| X 2 
A|---------------------------------------------------------------------------------| 
E|---8-------------------------1-------------------8-------------------------------| 


e|----------11--11------------------7---7---------------4---4-------------------8-----8-------| 
B|--------8---8---8---8-----------8---8---------------6---6---6---6----------8-----8----------| 
G|----------------------------7---------------------------------3-----------------------------| 
D|---10------------10---------9------------------------------------------10-------------------| 
A|----------------------------10--------------------------------------------------------------| 
E|---8---------------------------------------------6---------------------8--------------------| 




REST 




e|----------11--11-----------------4---4--------------3--3------------------------------------| 
B|--------8---8---8---8----------1---1---------------1--1--1---1--------------6-----6---------| 
G|------------------------------------------------0----------0--------------4----4------------| 
D|---10------------10----------3------------------1----------------------3--------------------|  
A|-----------------------------------------------------------------------5--------------------| 
E|---8-------------------------1--------------------------------------------------------------| 


REST  


e|----------11--11------------------11---11------------8--------------------------------------| 
B|--------8---8---8---8-----------8----8-------------8------------8---------------9----9------| 
G|-------------------------------------------------------8------8--------------10-------------| 
D|---10------------10----------9------------------6-----------------10--------------10--------|  
A|-----------------------------10----------------------------6--------------8-----------------| 
E|---8-------------------------7--------------------------------------------------------------| 



REST  


e|----------11--11------------------11---11------------6---6--------------------8----8--------| 
B|--------8---8---8---8-----------8----8-------------3---3-----3--------------4---4-----------| 
G|--------------------------------------------------------------------------------------------| 
D|---10------------10----------9------------------5----------5--------------6-----------------| 
A|-----------------------------10-------------------------------------------------------------| 
E|---8-------------------------7------------------3-------------------------4-----------------| 


REST  


e|----------4---4-------------------3---3-----------------------------------------------------| 
B|--------1---1-----1-------------1---1-------------------6----6------------------------------| 
G|----------------------------0------------------------4----4-----4--------------5------------| 
D|---3------------3-----------1--------------------3-----------------3------------------------|  
A|-------------------------------------------------5-----------------------------3------------| 
E|---1----------------------------------------------------------------------------------------| 


REST 


e|----------11--11-----------------4---4------------------11---11-----------------------------| 
B|--------8---8---8---8----------1---1------------------8----8---8----8-----------------------| 
G|--------------------------------------------------------------------------------------------| 
D|---10------------10----------3-------------------10--------------10-----10------------------|  
A|--------------------------------------------------------------------------------------------| 
E|---8-------------------------1-------------------8------------------------------------------| 


REST  


e|----------11--11------------------11---11------------8--------------------------------------| 
B|--------8---8---8---8-----------8----8-------------8------------8---------------9----9------| 
G|-------------------------------------------------------8------8--------------10-------------| 
D|---10------------10----------9------------------6-----------------10--------------10--------|  
A|-----------------------------10----------------------------6--------------8-----------------| 
E|---8-------------------------7--------------------------------------------------------------| 


REST  


e|----------11--11------------------11---11------------6---6--------------------8----8--------| 
B|--------8---8---8---8-----------8----8-------------3---3-----3--------------4---4-----------| 
G|--------------------------------------------------------------------------------------------| 
D|---10------------10----------9------------------5----------5--------------6-----------------| 
A|-----------------------------10-------------------------------------------------------------| 
E|---8-------------------------7------------------3-------------------------4-----------------| 



REST  


e|----------4---4-------------------3---3-----------------------------------------------------| 
B|--------1---1-----1-------------1---1-------------------------------------------------------| 
G|----------------------------0---------------------------------------------------------------| 
D|---3------------3-----------1---------------------------------------------------------------|  
A|--------------------------------------------------------------------------------------------| 
E|---1----------------------------------------------------------------------------------------| 




------------------------------------------------------------------------------------------------------------- 


e|----11~--------------11~---------------------------------11~-------------11~----------------| 
B|----13~-----13~------13~---------------------------------13~-----9~------13~----------------| 
G|------------13~--------------------------------------------------10~------------------------| 
D|--------------------------------------------------------------------------------------------|  
A|--------------------------------------------------------------------------------------------| 
E|--------------------------------------------------------------------------------------------| 

e|----11~--------------------------------------------------11~--------------------------------| 
B|----13~-----12~------9~-----8~---------------------------13~-----12~-----13~-----13~--------| 
G|------------12~------8~-----5~-----------------------------------12~-----10~-----12~--------| 
D|--------------------------------------------------------------------------------------------|  
A|--------------------------------------------------------------------------------------------| 
E|--------------------------------------------------------------------------------------------| 


------------------------------------------------------------------------------------------------------------- 

e|----------11--11-----------------4---4------------------11---11------------------| 
B|--------8---8---8---8----------1---1---1---1----------8----8---8----8------------| 
G|---------------------------------------------------------------------------------| 
D|---10------------10----------3-----------3-------10--------------10-----10-------| X 2 
A|---------------------------------------------------------------------------------| 
E|---------------------------------------------------------------------------------| 


e|----------11--11------------------11---11-----------4---4---------------3-------------------| 
B|--------8---8---8---8-----------8----8------------1---1---1---1-------1---1----------6------| 
G|-----------------------------------------------------------------------------------4--------| 
D|---10------------10----------9------------------3-----------3------1-------------0----------|  
A|--------------------------------------------------------------------------------------------| 
E|--------------------------------------------------------------------------------------------| 


REST  


e|----------11--11------------------11---11------------8--------------------------------------| 
B|--------8---8---8---8-----------8----8-------------8------------8---------------9----9------| 
G|-------------------------------------------------------8------8--------------10-------------| 
D|---10------------10----------9------------------6-----------------10--------------10--------|  
A|-----------------------------------------------------------6--------------8-----------------| 
E|--------------------------------------------------------------------------------------------| 


REST  


e|----------11--11------------------11---11------------6---6--------------------8----8--------| 
B|--------8---8---8---8-----------8----8-------------3---3-----3--------------4---4-----------| 
G|--------------------------------------------------------------------------------------------| 
D|---10------------10----------9------------------5----------5--------------6-----------------| 
A|--------------------------------------------------------------------------------------------| 
E|--------------------------------------------------------------------------------------------| 


REST  


e|----------4---4-------------------3---3-----------------------------------------------------| 
B|--------1---1-----1-------------1---1--------------6----------------------------------------| 
G|--------------------------------------------------4-----------------------------------------| 
D|---3------------3-----------1--------------------0------------------------------------------|  
A|--------------------------------------------------------------------------------------------| 
E|--------------------------------------------------------------------------------------------| 


REST 


e|---8---8----8--6--4--3-------8----------8---------8---8----8--7--5--3-------8---8---8-------| 
B|---8---8----8--6--4--3-------8----------8---------8---8----8--8--5--3-------8---8---8-------| 
G|--------------------------------------------------------------------------------------------| 
D|-----------------------------------------------------------0--------------------------------|  
A|-----------------------------8----------6-----------------------------------6-------5-------| 
E|---8----------------------------------------------8-----------------------------------------| 


e|---8---8----8--6--4--3-------8----8-----8---------10p8---8----8--7--5--3-------8---8---8----| 
B|---8---8----8--6--4--3-------8----8-----8---------8------8----8--8--5--3-------8---8---8----| 
G|--------------------------------------------------------------------------------------------| 
D|------------0-------------------------------------6----------------------------5-------6----|  
A|-----------------------------8----------6----5----------------8-----------------------------| 
E|---8----------------------------------------------------------------------------------------| 
                                                                                                 
                                                                                                 

------------------------------------------------------------------------------------------------------------- 
Outro: 

e|------------------------------------------------------| 
B|---------4-----------4-----------4------------4-------| 
G|-------5---5-------5---5-------5---5--------5---5-----| 
D|-----5-------5---5-------5---5------5-----5------5----|  
A|---3-----------3--------------------------------------| 
E|---------------------------3-----------3--------------| 


e|------------------------------------------------------| 
B|--------------------------------4-----------6---------| 
G|--------1-----------1---------3---3-------7---7-------| 
D|------3---3-------3---3-----5-------5---8-------8-----|  
A|----3-------3---3-------3-6-----------5---------------| 
E|---1-----------1--------------------------------------| 

e|------------------------------------------------------| 
B|---------4-----------4-----------4------------4-------| 
G|-------5---5-------5---5-------5---5--------5---5-----| 
D|-----5-------5---5-------5---5------5-----5------5----|  
A|---3-----------3--------------------------------------| 
E|---------------------------3-----------3--------------| 

e|------------------------------------------------------| 
B|---------------------4--------------------------------| 
G|---------5---------3---3---------1-----------1--------| 
D|-------6---6-----5-------5-----3---3-------3---3------|  
A|-----6-------6-6-------------3-------3---3-------3----| 
E|---4-----------------------1-----------1--------------| 



------------------------------------------------------------------------------------------------------------- 

Slight variation at the end 


e|------------------------------------------------------| 
B|---------4-----------4-----------4------------4-------| 
G|-------5---5-------5---5-------5---5--------5---5-----| 
D|-----5-------5---5-------5---5------5-----5------5----|  
A|---3-----------3--------------------------------------| 
E|---------------------------3-----------3--------------| 


e|------------------------------------------------------| 
B|--------------------------------4-----------6---------| 
G|--------1-----------1---------3---3-------7---7-------| 
D|------3---3-------3---3-----5-------5---8-------8-----|  
A|----3-------3---3-------3-6-----------5---------------| 
E|---1-----------1--------------------------------------| 

e|------------------------------------------------------| 
B|---------4-----------4-----------4----------4---------| 
G|-------5---5-------5---5-------3---3------3---3-------| 
D|-----5-------5---5-------5---1------1---1-------1-----|  
A|---3-----------3-----------1----------1---------------| 
E|------------------------------------------------------| 

e|------------------------------------------------------| 
B|--------------------------------4-----------6---------| 
G|--------1-----------1---------3---3-------7---7-------| 
D|------3---3-------3---3-----5-------5---8-------8-----|  
A|----3-------3---3-------3-6-----------5---------------| 
E|---1-----------1--------------------------------------| 
	  

Search Paypal
auto scroll beats size up size down change color hide chords drawings
tab show chords e-chords YouTube Clip e-chords hide all tabs e-chords go to top tab