Ramin Djawadi

Chaos Is A Ladder

Ramin Djawadi

tabs

by  PAULLET3

save to print version add songbook text version e-mail correct tuner
chordsukulelecavacokeyboardtabbassdrumsharmonicaflute Guitar Pro
close

there isn't a video lesson for this song

chords

Chaos Is A Ladder

	  		
Tuning: D A D G B e

Part 1 

Guitar 1 (let ring) 

e|-------------------|-------------------|-------------------|-------------------| 
G|-------------------|-------------------|-------------------|-------------------| 
G|--4----------------|-----------------7-|--6----------------|-----------------4-| 
D|--4----------------|-----------------5-|--4----------------|-----------------4-| 
A|--2----------------|-----------------5-|--4----------------|-----------------2-| 
D|-------------------|-----------------5-|--4----------------|-------------------| 

Guitar 2 

e|-------------------|-------------------|-------------------|-------------------| 
B|-----------------3-|-------------------|-----------------3-|-------------------| 
G|--4----------------|--4--------------4-|--6----------------|--4--------------4-| 
D|-------5----4------|-------5----4------|-------5----4------|-------5----4------| 
A|-------------------|-------------------|-------------------|-------------------| 
D|-------------------|-------------------|-------------------|-------------------| 



Guitar 1 (let ring) 

e|-------------------|-------------------|-------------------|-------------------| 
G|-------------------|-------------------|-------------------|-------------------| 
G|--6----------------|-------------------|--4----------------|-------------------| 
D|--6----------------|-------------------|--4----------------|-------------------| 
A|--4----------------|-------------------|--2----------------|-------------------| 
D|-------------------|-------------------|-------------------|-------------------| 


Guitar 2 

e|-------------------|-------------------|-------------------|-------------------| 
B|-----------------3-|-------------------|-------------------|-------------------| 
G|--6----------------|--4--------------3-|--4----------------|-------------------| 
D|-------5----4------|-------5----4------|-------5----4----0-|-------------------| 
A|-------------------|-------------------|-------------------|--2----------------| 
D|-------------------|-------------------|-------------------|-------5----4----0-| 



Guitar 1 (let ring) 

e|-------------------| 
G|-------------------| 
G|--4----------------| 
D|--4----------------| 
A|--2----------------| 
D|-------------------|     

Guitar 2 

e|-------------------| 
B|-------------------| 
G|--4---------4------| 
D|--4---------4------| 
A|--2---------2------| 
D|-------------------| 


Part 2 


Guitar 1 (let ring) 

e|-------------------|-------------------|-------------------|-------------------| 
G|-------------------|-------------------|-------------------|--5----------------| 
G|--4----------------|--4----------------|--6----------------|--4----------------| 
D|--4----------------|--4----------------|--6----------------|--2----------------| 
A|--2----------------|--2----------------|--4----------------|-------------------| 
D|-------------------|-------------------|-------------------|-------------------| 

Guitar 2 

e|--7-------------10-|--7--------------7-|--9-------------10-|--7--------------7-| 
B|-------8----7------|-------8----7------|-------8----7------|-------8----7------| 
G|-------------------|-------------------|-------------------|-----------------4-| 
D|-------------------|-------------------|-------------------|-------------------| 
A|-------------------|-------------------|-------------------|-------------------| 
D|-------------------|-------------------|-------------------|-------------------| 


Part 3 


Guitar 1 

e|--------------------------|--------------------------|--------------------------|--------------------------| 
G|--------------------------|--------------------------|--------------------------|--------------------------| 
G|--4-4-4-4-4-4-4-4-4-4-4-7-|--4-4-4-4-4-4-4-4-4-4-4-7-|--4-4-4-4-4-4-4-4-4-4-4-7-|--4-4-4-4-4-4-4-4-4-4-4-7-| 
D|--------------------------|--------------------------|--------------------------|--------------------------| 
A|--2-2-2-2-2-2-2-2-2-2-2-5-|--2-2-2-2-2-2-2-2-2-2-2-5-|--2-2-2-2-2-2-2-2-2-2-2-5-|--2-2-2-2-2-2-2-2-2-2-2-5-| 
D|--------------------------|--------------------------|--------------------------|--------------------------| 

Guitar 2 

e|--9-----------------10----|--7-----------------7-----|--9-----------------10----|--7-----------------7-----| 
B|--------8-----7-----------|--------8-----7-----------|--------8-----7-----------|--------8-----7-----------| 
G|--6-----------------7-----|--4-----------------4-----|--6-----------------7-----|--4-----------------4-----| 
D|--------5-----4-----------|--------5-----4-----------|--------5-----4-----------|--------5-----4-----------| 
A|--------------------------|--------------------------|--------------------------|--------------------------| 
D|--------------------------|--------------------------|--------------------------|--------------------------| 


Part 4 


Guitar 1 

e|-------------------------------------|-------------------------------------| 
G|-------------------------------------|-------------------------------------| 
G|--9--9--9--9--9--9--9--9--9--9--9--9-|-10-10-10-10-10-10-10-10-10 10-10-10-| 
D|-------------------------------------|-------------------------------------| 
A|--7--7--7--7--7--7--7--7--7--7--7--7-|-8--8--8--8--8--8--8--8--8--8--8--8--| 
D|-------------------------------------|-------------------------------------| 

Guitar 2 

e|--9-------------------------10-------|-7--------------------------7--------| 
B|-----------8--------7----------------|----------8--------7-----------------| 
G|--6--------------------------7-------|-4--------------------------4--------| 
D|-----------5--------4----------------|----------5--------4-----------------| 
A|-------------------------------------|-------------------------------------| 
D|-------------------------------------|-------------------------------------| 



Guitar 1 

e|-------------------------------------|-------------------------------------| 
B|-------------------------------------|-------------------------------------| 
G|-11-11-11-11-11-11-11-11-11-11-11-11-|-12-12-12-12-12-12-12-12-12-12-12-12-| 
D|-------------------------------------|-------------------------------------| 
A|-9--9--9--9--9--9--9--9--9--9--9--9--|-10-10-10-10-10-10-10-10-10-10-10-10-| 
E|-------------------------------------|-------------------------------------| 

Guitar 2 

e|-9--------------------------10-------|--7--------------------------7-------| 
B|----------8--------7-----------------|-----------8--------7----------------| 
G|-6--------------------------7--------|--4--------------------------4-------| 
D|----------5--------4-----------------|-----------5--------4----------------| 
A|-------------------------------------|-------------------------------------| 
D|-------------------------------------|-------------------------------------| 
  


Guitar 1 

e|-------------------------------------| 
B|-------------------------------------| 
G|-11-11-11-11-11-11-11----------------| 
D|-------------------------------------| 
A|-9--9--9--9--9--9--9-----------------| 
E|-------------------------------------| 

Guitar 2 

e|-9-----------------------------------| 
B|-------------------------------------| 
G|-6-----------------------------------| 
D|-------------------------------------| 
A|-------------------------------------| 
D|-------------------------------------| 


Outro 

Guitar 2  

e|--7-------------10-|--7--------------7-|--9-------------10-|--7----------------|-| 
B|-------8----7------|-------8----7------|-------8----7------|-------8----7------|-| 
G|------------7------|------------7------|------------7------|-----------------7-|-| 
D|--9----------------|--9----------------|--9----------------|--9---------10-----|9| 
A|-------------------|-------------------|-------------------|-------------------|-| 
D|-------------------|-------------------|-------------------|-------------------|9| 



Don't forget to rate this tab. Thanks! 
		  

See also:

tabs Ramin Djawadi - Light Of Seven (ver. Acoustic) tabs Ramin Djawadi - The Winds Of Winter tabs Hans Zimmer - Interestellar Main Theme tabs Ramin Djawadi - Pacific Rim tabs Ramin Djawadi - Game Of Thrones tabs Ramin Djawadi - Needle
e-chords

Other versions:

tabs Ramin Djawadi - Chaos Is A Ladder
auto scroll beats size up size down change color hide chords drawings
tab show chords e-chords YouTube Clip e-chords hide all tabs e-chords go to top tab

share