Rage Against The Machine

home > Rage Against The M...

Year Of Tha Boomerang Tab

Rage Against The Machine

Difficulty: nolevelnolevel

by Guirocknaveia

tuner correct add songbook print version text version save to e-mail
chordsukulelecavacokeyboardtabbassdrummharmonicsflute Guitar Pro
chords

Year Of Tha Boomerang

Year: 1996 - Album: Evil Empire

  		D˙vidas fale com guilherme ([email protected]) ou ([email protected]). 
 
E|--------10----------------------|     
B|------------------------8-------|     
G|-(8)b7------7---9---7-------7---|  
D|--------------------------------|     
A|--------------------------------|     
E|--------------------------------|     
 
    
E|---------------------------------|--------------------------------| 
B|---------------------------------|--------------------------------| 
G|---------------------------------|--------------------------------| 
D|---------------------------------|--------------------------------| 
A|-2---x-x-5-7---0-----2---x---x-0-|2---x-x-5-7---0-----2-----------| 
E|-2---x-x-------0-----2---x---x-0-|2---x-x-------0-----2---\-------| 
 
 
E|----------------------------------------------------------| 
B|----------------------------------------------------------| 
G|----------------------------------------------------------| 
D|-----<12>------0-----<7>---<7>----3-----5-----3-----------| 
A|--<12>-----<12>----<7>---<7>----3-----5-----3--/5-----3---| 
E|-0------<12>-----<7>---<7>----3-----5-----3---------------| 
  
E|---------------------| 
B|---------------------| 
G|---------------------| 
D|---------------------| 
A|-4-----4-----x---2---| 
E|-4-----4-----x---2---| 
 
                     3x 
E|---------------------| |---------------------| 
B|---------------------| |---------------------| 
G|---------------------| |---------------------| 
D|-------------2-------| |-------------2-------| 
A|-4-----4---4-0---2---| |-4-4-4-2---4-0---2---| 
E|-4-----4---4-----2---| |-4-4-4-2---4-----2---| 
                        
E|---------------------| 
B|-9----9------9---9---| 
G|---------------------| 
D|-6----6------6---6---| 
A|---------------------| 
E|---------------------| 
 
 
E|-----------------------------------------------------------| 
B|-----------------------------------------------------------| 
G|-----------------------------------------------------------| 
D|-------<12>-----0-----<7>----0-----3-----5-----3-----------| 
A|----<12>----<12>----<7>---<7>----3-----5-----3--/5-----3---| 
E|-<12>------0------<7>---<7>----3-----5-----3---------------| 
	  

Search Paypal
auto scroll beats size up size down change color hide chords drawings
tab show chords e-chords YouTube Clip e-chords hide all tabs e-chords go to top tab