Rage Against The Machine

Killing In The Name (ver. 2)

Rage Against The Machine

tabs Expert expert

save to print version add songbook text version e-mail correct tuner
chordsukulelecavacokeyboardtabbassdrumsharmonicaflute Guitar Pro
close

there isn't a video lesson for this song

chords

Killing In The Name (ver. 2)

	  		 
Intro 
 
e-----------| 
B-----------|  
G----1------| 
D----2------| -----> 4x 
A----2------| 
E-----------| 
 
 
AI O BAIXO FAZ  
 
G-------------------------------| 
D-------------------------------| -----> 4X 
A--------------------6--6--6----| 
E------0--0--0------------------| 
 
 
AI ENTRA A GUITARRA  
 
RIFF 1 
e---------------------------------|-------------------------| 
B------------------9--10----------|--------------------10---| 
G-------------8--9------------3x--|----------------8-9------| 
D---------------------------------|-------------------------|-----> 2x  
A---------------------------------|-------------------------| 
E----0--0--0----------------------|---------0--0--0---------|OBS:AQUI A NOTA "MI" É ABAFADO! 
 
 
RIFF 2  
e-------------------| 
B-------------------| 
G-------------------| 
D---------------2---|4X ----> É ABAFADO, DEIXE A NOTA SUAR !  
A---------------2---| 
E----0--0--0--------| 
 
 
RIFF 3 
 
e-------------------------------------------|  
B-------------------------------------------| 
G-------------------------------------------|4X E DEPOIS 8X ABAFADO  
D-------------5--6--------------4-/5/4------| 
A----7--5--7--------7-----------4-/5/4------| 
E------------------------0------2-/3/2------| 
 
 
RIFF 4  
 
e------------------------------------------------------------------| 
B------------------------------------------------------------------| 
G--------------6-----------5----------4----------------------------| 
D--------------------------------------------------------4/5/4-----| 
A----7--5--7------7--5--7-----7--5--7----7--5--7---------4/5/4-----| 
E----------------------------------------------------0---2/3/2-----| 
 
 
RIFF 5  
 
e---------|                   e----------------------| 
B---------|                   B----------------------| 
G---------|                   G----9--X-X-X-X-X-X----| 
D----9----|---> 5X            D----9--X-X-X-X-X-X----|-----> 8x 
A----9----|                   A----7--X-X-X-X-X-X----| 
E----7----|                   E----------------------| 
 
 
REFRÃO 
 
E G A D   ---> 8X  
 
 
 
 
 
 
AI REPETE TUDO NOVAMENTE NAS SEGUINTES ORDENS  
 
RIFF 3  
RIFF 4 
RIFF 5  
REFRÃO  
 
AI ENTRA O SOLO QUE EU AINDA NAO TIREI !!! 
     
DEPOIS DO SOLO--->RIFF 2  
REFRÃO  
RIFF 2------> PARA TERMINA A MÚSICA !!!!!  
 
 
_______________________________________________________ 
Contribuição: Diego Alves Fiamengui([email protected]) 

		  

Full key step upFull key step up
Half key step upHalf key step up
Half key step downHalf key step down
Full key step downFull key step down
hide glossary

See also:

tabs Guns N' Roses - Since I Don't Have You tabs The Offspring - The Kids Aren't Alright tabs Foo Fighters - Everlong Acoustic tabs Simon & Garfunkel - Sounds of silence tabs The Doors - Roadhouse Blues tabs The Doors - People Are Strange
e-chords

Other versions:

tabs Rage Against The Machine - Killing In The Name tabs Guitar Hero - Killing In The Name tabs Rage Against The Machine - Killing In The Name (ver. 2) tabs Rage Against The Machine - Killing In The Name (without solo) tabs Rage Against The Machine - Killing In The Name Of
auto scroll beats size up size down change color hide chords drawings
tab show chords e-chords YouTube Clip e-chords hide all tabs e-chords go to top tab

share