Rage Against The Machine

home > Rage Against The M...

Freedom - 3 Tab

Rage Against The Machine

Difficulty: nolevelnolevel

by massem

tuner correct add songbook print version text version save to e-mail
chordsukulelecavacokeyboardtabbassdrumsharmonicsflute Guitar Pro
chords

Freedom - 3

  		Rage Against The Machine  
Freedom - (ver. 3)  
   
 
 
Rage Against The Machine - Freedom (Cifrada)    
   
introductin veiros...  
  
Riff 1:escala de D  
  
parte 1:  
----------------------------------------------------------------------------  
----------------------------------------------------------------------------  
----------------------------------------------------------------------------  
----------------------------------------------------------------------------  
-----5-------3-------5-5-----5-------3-------5--x-x-x-x---------------------  
-------0-3-5---5-3-5-----0-3---0-3-5---5-3-5----x-x-x-x---------------------  
  
parte 2  
----------------------------------------------------------------------------  
----------------------------------------------------------------------------  
----------------------------------------------------------------------------  
---------------------------------------------0-5-4-3------------------------  
-----5-------3-------5-5-----5-------3---------------5-4--------------------  
-------0-3-5---5-3-5-----0-3---0-3-5---5-3-5-------------5-4----------------  
  
parte 3  
------------------------------------------------bate-na-corda-de-fora-------  
----------------------------------------------bem na parte das tarrachas----  
----------------------------------------------------------------------------  
----------------------------------------------------------------------------  
-----5-------3-------5-5-----5-------3-------5------------------------------  
-------0-3-5---5-3-5-----0-3---0-3-5---5-3-5--------------------------------  
  
parte 4  
----------------------------------------------------------------------------  
----------------------------------------------------------------------------  
----------------------------------------------------------------------------  
----------------------------------------------------------------------------  
-----5-------3-------5-5-----5-------3-------5--x-x-x-x---------------------  
-------0-3-5---5-3-5-----0-3---0-3-5---5-3-5----x-x-x-x---------------------  
  
  
  
Riff 2 caras...  
esta  a base...  
     A  E E A  A  E E E E A    A  A    E E A  E E A  A  E E E E  D C# D  D       
-----10-----10-10---------10---10-10-------10-----10-10---------------------  
-----10-----10-10---------10---10-10-------10-----10-10---------------------  
-----7------7--7----------7----7--7--------7------7--7----------------------  
-----7------7--7----------7----7--7--------7------7--7----------------------  
-----x------x--x----------x----x--x--------x------x--x-----------10-9-10-10-  
-----x--0-0-x--x--0-0-0-0-x----x--x----0-0-x--0-0-x--x--0-0-0-0--10-9-10-10-  
  
  
repete Riff 1:escala em D  
  
parte 1  
----------------------------------------------------------------------------  
----------------------------------------------------------------------------  
----------------------------------------------------------------------------  
----------------------------------------------------------------------------  
-----5-------3-------5-5-----5-------3-------5--x-x-x-x---------------------  
-------0-3-5---5-3-5-----0-3---0-3-5---5-3-5----x-x-x-x---------------------  
  
parte 2  
----------------------------------------------------------------------------  
----------------------------------------------------------------------------  
----------------------------------------------------------------------------  
-----------------------------------------------5-4-3------------------------  
-----5-------3-------5-5-----5-------3-------5-------5-4--------------------  
-------0-3-5---5-3-5-----0-3---0-3-5---5-3-5-------------5-4----------------  
  
parte 3  
------------------------------------------------bate-na-corda-de-fora-------  
----------------------------------------------bem na parte das tarrachas----  
----------------------------------------------------------------------------  
----------------------------------------------------------------------------  
-----5-------3-------5-5-----5-------3-------5------------------------------  
-------0-3-5---5-3-5-----0-3---0-3-5---5-3-5--------------------------------  
  
parte 4  
----------------------------------------------------------------------------  
----------------------------------------------------------------------------  
----------------------------------------------------------------------------  
----------------------------------------------------------------------------  
-----5-------3-------5-5-----5-------3-------5--x-x-x-x---------------------  
-------0-3-5---5-3-5-----0-3---0-3-5---5-3-5----x-x-x-x---------------------  
  
  
  
Riff 2 caras...  
esta  a base...  
     A  E E A  A  E E E E A    A  A    E E A  E E A  A  E E E E  D C# D  D  
-----10-----10-10---------10---10-10-------10-----10-10---------------------  
-----10-----10-10---------10---10-10-------10-----10-10---------------------  
-----7------7--7----------7----7--7--------7------7--7----------------------  
-----7------7--7----------7----7--7--------7------7--7----------------------  
-----x------x--x----------x----x--x--------x------x--x-----------10-9-10-10-  
-----x--0-0-x--x--0-0-0-0-x----x--x----0-0-x--0-0-x--x--0-0-0-0--10-9-10-10-  
repete 2x ok  
  
depois  vem... 
     A  
-----10---------------------------------------------------------------------  
-----10---------------------------------------------------------------------  
-----7--------de s uma batida e vai----------------------------------------  
-----7--------voutando os dedos para----------------------------------------  
-----x--------para a primeira casa..----------------------------------------  
-----x----------------------------------------------------------------------  
Riff 3  
pre refraum...  
  
nesta parte a nota vem com o volume almentando aos poucos...  
e depois faz um mudo derrepente...   
          E  
  
----------------------------------------------------------------------------  
----------------------------------------------------------------------------  
----------9<<<<<<<<<<<<<<---9<<<<<<<<<<<<<<---7<<<<<<<<<<<<<<---------------  
----------9<<<<<<<<<<<<<<---------------------------------------------------  
----------7<<<<<<<<<<<<<<---------------------------------------------------  
----------------------------------------------------------------------------  
  
Riff 4  
refaum brother....  
  
----------------------------------------------------------------------------  
----------------------------------------------------------------------------  
----------------------------------------------------------------------------  
----------------------------------------------------------------------------  
-----3-3-3-3-3-3-5--5-5-5-3-5------------------3-3-3-3-3-3-5--5-5-5-3-5-----  
----------------------------------------------------------------------------  
repete 2x ok...  
  
refraum 2.  
mais incrementado...  
      C C C C C C D  D D D C D                C C C C C C D  D D D C D  
----------------------------------------------------------------------------  
----------------------------------------------------------------------------  
----------------------------------------------------------------------------  
------5-5-5-5-5-5-7--7-7-7-5-7-----------------5-5-5-5-5-5-7--7-7-7-5-7-----  
------3-3-3-3-3-3-5--5-5-5-3-5-----------------3-3-3-3-3-3-5--5-5-5-3-5-----  
------------------0--0-0-0---0-----------------------------0--0-0-0---0-----  
repete 2x tanbem ok...   
  
refraum 3.  
  
----------------------------------------------------------------------------  
----------------------------------------------------------------------------  
------5-5-5-5-5-5/7--7-7-7-5/7-7---------------5-5-5-5-5-5/7--7-7-7-5/7-7---  
----------------------------------------------------------------------------  
----------------------------------------------------------------------------  
----------------------------------------------------------------------------  
repete 4 x ok depois ja vem com o solo...  
  
  
  
Solo: agora arrepia...  
  
  
Use a lotta  vibe.              (note: pick note, let  
ring, then bend  
                                            -half  
step)-  
E---------------------------------------------------------------------------  
B----------------------------------------------------------6-6b-------------  
G------10~~~~~~~~~~--10-9~~~~~~~~~~-----5~~~~~~~~~~----5h7-----7---7/0------  
D---12-------------------------------5h7------------5h7---------------------  
A---------------------------------------------------------------------------  
D---------------------------------------------------------------------------  
  
                                                        
 rake  
E-------------------------------------------------------------12-13-12------  
B-----------------------------------------------------------13--------13----  
G------10~~~~~~~~~~--10-12-14-15-14-12-10-9~~~~~~~~~~-14--------------------  
D---12----------------------------------------------------------------------  
A---------------------------------------------------------------------------  
D---------------------------------------------------------------------------  
  
    rake  
E------12-13-12----------12-13-15-17--15-13-15-13---------------------------  
B----13--------13------13-------------------------15~~~~~~~~~~--------------  
G---------------------------------------------------------------------------  
D---------------------------------------------------------------------------  
A---------------------------------------------------------------------------  
D---------------------------------------------------------------------------  
  
(Solo parte 2 caras)  
     D C D C D  F G F G F  C B C B C  A G A G A G  G  
----------------------------------------------------------------------------  
----------------------------------------------------------------------------  
----------------------------------------------------------------------------  
----------------5-3-5-3-5---------------------------------------------------  
-----5-3-5-3-5-------------3-2-3-2-3---------------3------------------------  
--------------------------------------5-3-5-3-5-3--3------------------------  
repete 4x esta parte meu camaradas...  
  
Neste ai  diferenete. a uma variation no final Riff 2, ending with a  
slide.  
     A  E E A  A  E E E E A  
-----10-----10-10---------10------------------------------------------------  
-----10-----10-10---------10------------------------------------------------  
-----7------7--7----------7-------------------------------------------------  
-----7------7--7----------7-------------------------------------------------  
-----x------x--x----------x-------------------------------------------------  
-----x--0-0-x--x--0-0-0-0-x--slide-1-2-3-4-5-6-7-8-9-10-11-12---------------  
faz isso s 1x ok...  
  
Riff 2 caras...  
esta  a base...  
     A  E E A  A  E E E E A    A  A    E E A  E E A  A  E E E E  D C# D  D  
-----10-----10-10---------10---10-10-------10-----10-10---------------------  
-----10-----10-10---------10---10-10-------10-----10-10---------------------  
-----7------7--7----------7----7--7--------7------7--7----------------------  
-----7------7--7----------7----7--7--------7------7--7----------------------  
-----x------x--x----------x----x--x--------x------x--x-----------10-9-10-10-  
-----x--0-0-x--x--0-0-0-0-x----x--x----0-0-x--0-0-x--x--0-0-0-0--10-9-10-10-  
repete 2x ok  
  
depois  vem...  
     A 
-----10---------------------------------------------------------------------  
-----10---------------------------------------------------------------------  
-----7--------de s uma batida e vai----------------------------------------  
-----7--------voutando os dedos para----------------------------------------  
-----x--------para a primeira casa..----------------------------------------  
-----x----------------------------------------------------------------------  
Riff 3  
pre refraum...  
  
nesta parte a nota vem com o volume almentando aos poucos...  
e depois faz um mudo derrepente...   
          E  
  
----------------------------------------------------------------------------  
----------------------------------------------------------------------------  
----------9<<<<<<<<<<<<<<---9<<<<<<<<<<<<--11<<<<<<<<<<<<---7<<<<<<<<<<<<<--  
----------9<<<<<<<<<<<<<<---------------------------------------------------  
----------7<<<<<<<<<<<<<<---------------------------------------------------  
----------------------------------------------------------------------------  
  
  
Riff 4  
refaum brother....  
  
----------------------------------------------------------------------------  
----------------------------------------------------------------------------  
----------------------------------------------------------------------------  
----------------------------------------------------------------------------  
-----3-3-3-3-3-3-5--5-5-5-3-5------------------3-3-3-3-3-3-5--5-5-5-3-5-----  
----------------------------------------------------------------------------  
repete 2x ok...  
  
refraum 2.  
mais incrementado...  
      C C C C C C D  D D D C D                 C C C C C C D  D D D C D 
----------------------------------------------------------------------------  
----------------------------------------------------------------------------  
----------------------------------------------------------------------------  
------5-5-5-5-5-5-7--7-7-7-5-7-----------------5-5-5-5-5-5-7--7-7-7-5-7-----  
------3-3-3-3-3-3-5--5-5-5-3-5-----------------3-3-3-3-3-3-5--5-5-5-3-5-----  
------------------0--0-0-0---0-----------------------------0--0-0-0---0-----  
repete 2x tanbem ok...   
  
refraum 3.  
  
----------------------------------------------------------------------------  
----------------------------------------------------------------------------  
------5-5-5-5-5-5/7--7-7-7-5/7-7---------------5-5-5-5-5-5/7--7-7-7-5/7-7---  
----------------------------------------------------------------------------  
----------------------------------------------------------------------------  
----------------------------------------------------------------------------  
repete 2x ok depois ja vem com o solo...  
  
refraum 4.  
      C C C C C C D  D D D C D                 C C C C C C D  D D D C D 
----------------------------------------------------------------------------  
------4-4-4-4-4-4-6--6-6-6-4-6-----------------4-4-4-4-4-4-6--6-6-6-4-6-----  
------5-5-5-5-5-5-7--7-7-7-5-7-----------------5-5-5-5-5-5-7--7-7-7-5-7-----  
------5-5-5-5-5-5-7--7-7-7-5-7-----------------5-5-5-5-5-5-7--7-7-7-5-7----- 
------3-3-3-3-3-3-5--5-5-5-3-5-----------------3-3-3-3-3-3-5--5-5-5-3-5----- 
------------------0--0-0-0---0-----------------------------0--0-0-0---0----- 
repete 2x ok...  
Then it goes back to Riff 2.  
  
  
inquanto o baixo faz isso ai...  
----------------------------------------------------------------------------  
----------------------------------------------------------------------------  
-----------------4--3--4--5-----------------4--3--4--5---------------------  
-----0--3--5--6----------------0--3--5--6-----------------------------------  
faz 4x com a grito solando o q esta ai em debaixo...  
a guita faz isto ai...  
----------------------------------------------------------------------------  
----------------------------------------------------------------------------  
------7~~~~~~~~~~-7~~~~~~~~~~--7~~~~~~~~~~--7~~~~~~~~~~---------------------  
----------------------------------------------------------------------------  
----------------------------------------------------------------------------  
----------------------------------------------------------------------------  
  
nesta parte vem com a guitacom distortion:  
     E  G  A  A# B  C  C# D  D# 
----------------------------------------------------------------------------  
----------------------------------------------------------------------------  
----------------------------------------------------------------------------  
----------------------------------------------------------------------------  
-----0--3--5--6--7--8--9--10--11--------------------------------------------  
-----0--3--5--6--7--8--9--10--11--------------------------------------------  
  
depois conclue com essas batidas finais  
    D#    D#  D#  D#  D#  D#  D#         D# 
----------------------------------------------------------------------------  
-----------------------------------------------dai para l  s microfonia--  
----------------------------------------------- pucha o plugue da guitarra-  
-----------------------------------------------e torcer para conseguir o----  
----11----11--11--11--11--11--11---------11----mesmo resultado...ok veios---  
----11----11--11--11--11--11--11---------11---------------------------------  
  
Nesta musika tem as seguintes notas:E,F,G,A,A#,B,C,C#,D,D#  
fiz esta versaum com notas para akeles q naum manjam muito... 
  
fui.........................  
  
AKI:Marcelo Silva Oliveira...  
Da cidade de Cotia.....So Paulo 
dedukada a Hugo meu brother... 
 

	  

Full key step upFull key step up
Half key step upHalf key step up
Half key step downHalf key step down
Full key step downFull key step down
Search Paypal
auto scroll beats size up size down change color hide chords drawings
tab show chords e-chords YouTube Clip e-chords hide all tabs e-chords go to top tab