Rage Against The Machine

home > Rage Against The M...

Clear The Lane Tab

Rage Against The Machine

Difficulty: nolevelnolevel

tuner correct add songbook print version text version save to e-mail
chordsukulelecavacokeyboardtabbassdrumsharmonicsflute Guitar Pro
chords

Clear The Lane

Year: 1997 - Album: Live & Rare

  		 
E|-------------| 
B|--9/^11------| 
G|-------------| 
D|----------9--| 
A|-------------| 
E|-------------| 
 
 
E|-----------------------------| 
B|-----------------------------| 
G|-----------------------------| 
D|-------5---5-----------------| 
A|--7-7--3---3--5--5-7-7--7-6--| 
E|--5-5---------3--3-5-5--5-4--| 
 
E|---------------------------------------| 
B|---------------------------------------| 
G|------------------------7/9-9/10101010-| 
D|-------5---5------------x/x-x/x-x-x-x--| 
A|--7-7--3---3--5--5-7-7--5/7-7/8-8-8-8--| 
E|--5-5---------3--3-5-5-----------------| 
 
 
E|--------------| 
B|--10/^12------| 
G|--------------| 
D|----------10--| 
A|--------------| 
E|--------------| 
 
 
E|--------------------| 
B|--^11^11^11^11------| 
G|--------------------| 
D|-----------------9--| 
A|--------------------| 
E|--------------------| 
 
 
 
E|----------------| 
B|----------------| 
G|--7-7-7-7--7/3--| 
D|--x-x-x-x--x/x--| 
A|--5-5-5-5--5/1--| 
E|----------------| 
 
E|------------------| 
B|------------------| 
G|--7-7-7-7--7-9-9--| 
D|--x-x-x-x--x-x-x--| 
A|--5-5-5-5--5-7-7--| 
E|------------------| 
 
 
E|-----------------| 
B|-----------------| 
G|-----------------| 
D|-----------------| 
A|--7--8--7--5--7--| 
E|-----------------| 
 
 
E|--0--| 
B|--0--| 
G|--9--| 
D|--9--| 
A|--7--| 
E|--0--| 
 
 
_______________________________________________________ 
Contribuição: Alceu Cintra De Oliveira Neto(AlceuKornSoadRageCypress)([email protected]) 

	  

Search Paypal
auto scroll beats size up size down change color hide chords drawings
tab show chords e-chords YouTube Clip e-chords hide all tabs e-chords go to top tab