Rage Against The Machine

home > Rage Against The M...

As Hes In The Fall Tab

Rage Against The Machine

Difficulty: BeginnerBeginner

by Guirocknaveia

tuner correct add songbook print version text version save to e-mail
chordsukulelecavacokeyboardtabbassdrummharmonicsflute Guitar Pro
chords

As Hes In The Fall

  		 
D˙vidas fale com Guilherme Breda Rezende ([email protected]). 
  
 
Intro 
|-----------------------------------------------------------------------| 
|-----------------------------------------------------------------------| 
|-----------------------------------------------------------------------| 
|-7-0-0-7-0-0-7--7-0-0-7-0-0-7--8-0-0-8-0-0-8--8-0-0-8-0-0-8--10-0-0-10-| 
|-----------------------------------------------------------------------| 
|-----------------------------------------------------------------------| 
 W/digitech whammy set 2 octaves higher. 
 *hammer and pull of notes while switching 
  toggle switch (lead 10, rythm 0).  
|--------------------------------------------------------| 
|--------------------------------------------------------| 
|--------------------------------------------------------| 
|-0-0-10--10-0-0-10-0-0-10--8-0-0-8-0-0-8--8-0-0-8-0-0-8-| 
|--------------------------------------------------------| 
|--------------------------------------------------------| 
 
 
 Verse-w/delay and whammy 
|-------------------------------------------| 
|-------------------------------------------| 
|-------------------------------------------| 
|--12---------------------10----------------| 
|-------------------------------------------| 
|-------------------------------------------| 
   *--------------------|  *---------------|  
  *w/digitech whammy set 2 octave up, set pedal  
   fully pressed, then gradually depress the pedal  
   sending the note back to normal pitch. 
 
 Chorus 
|-----------------| 
|-----------------| 
|-----------------| 
|-10-10-10--10-10-| 
|-10-10-10--10-10-| 
|-10-10-10--10-10-| 
 w/wah 
 
 outro 
|----x-x-x-----x-x-x-| 
|----x-x-x-----x-x-x-| 
|----x-x-x-----x-x-x-| 
|----x-x-x--3~-x-x-x-| 
|----x-x-x-----x-x-x-| 
|-0--x-x-x-----x-x-x-| 
    *-----|   *-----| 
 *-random picking, harmonics, and whammy effects. 
 
 
|-------------------------| 
|-------------------------| 
|-------------------------| 
|-7-----7-----7--3-----3--| 
|-------------------------| 
|---0-0---0-0------0-0----| 
 *random picking, harmonics, and whammy effects throughout. 
 
 Outro 
|----------------------------| 
|----------------------------| 
|-11-----11-----11-----11----| 
|----12-----12-----12-----12-| 
|----------------------------| 
|----------------------------| 
   
 End with random effects from whammy. 
	  

Search Paypal
auto scroll beats size up size down change color hide chords drawings
tab show chords e-chords YouTube Clip e-chords hide all tabs e-chords go to top tab