Raf

Draculas Castle Castlevania Sotn Sound Track

Raf

tabs

by  TERR_SCHMITZ

save to print version add songbook text version e-mail correct tuner
chordsukulelecavacokeyboardtabbassdrumsharmonicaflute Guitar Pro
close

there isn't a video lesson for this song

chords

Draculas Castle Castlevania Sotn Sound Track

	  		

Tuning: E A D G B E 
~ sustain 
/ slide 
b bend 
pm palm mute 
br bend then release 
p pause 


INTRO (USE NECK PICK UP)  
e|---------------------------------------------------------------------------| 
B|-14~~---------/10-/14~~--12-14-15~~-13-15-/18~~-16-15~~--------------------| 
G|----/14~~--12~~------------------------------------------------------------| 
D|---------------------------------------------------------------------------| 
A|---------------------------------------------------------------------------| 
E|---------------------------------------------------------------------------| 

pm...............pm............... pm...............pm............... 
e|---------------|-----------------|----------------|-----------------|------| 
B|---------------|-----------------|----------------|-----------------|------| 
G|-7--------7----|-7---------7-----|-7--------7-----|-7---------7-----|-7/12~| 
D|--6-0-7-0--6-0-|---6-0-7-0---6-0-|--6-0-7-0---6-0-|---6-0-7-0---6-0-|------| 
A|---------------|-----------------|----------------|-----------------|------| 
E|---------------|-----------------|----------------|-----------------|------| 

e|------------|--------------------------------------------------------------| 
B|------------|-------------13-----------------------------------------------| 
G|-14-15-11~~-|-/12~~-14-15----15-14-12------14-12-10-12----7-5-4------------| 
D|------------|-------------------------15-13--------------------------------| 
A|------------|--------------------------------------------------------------| 
E|------------|--------------------------------------------------------------| 

B|----------------|-------------13-------------------------------------------| 
G|-/12~14-15-11~~-|-/12~~-14-15----15-14-12------14br-12-10-12----7-5-4~~----| 
D|----------------|-------------------------15-13----------------------------| 
A|----------------|----------------------------------------------------------| 
E|----------------|----------------------------------------------------------| 

SWITCH PICK UP TO BRIDGE 
e|-----------------------------------------|---------------------------------| 
B|-----------------------------------------|---------------------------------| 
G|-----------------------------------------|---------------------------------| 
D|-/5~-7-8-5--------5-7-8~6~5-----7-5------|------5-4-5-7-7/8-7-5~-----------| 
A|-----------8-6-8~-----------8-6-----8-5~-|-/6-8----------------------------| 
E|-----------------------------------------|---------------------------------| 

e|---------------------------------------------------------------------------| 
B|---------------------------------------------------------------------------| 
G|---------------------------------------------------------------------------| 
D|-/5-7-8-7---7-5~~-5-4-4~~--------------------------------------------------| 
A|----------7----------------------------------------------------------------| 
E|---------------------------------------------------------------------------| 

SWITCH PICK UP TO NECK 
e|---------------------------------------------------------------------------| 
B|-------------------6b------------------------------------------------------| 
G|-/7~~--5-7-5-3-5------8-7-8br~-5-7-8~--7-5-7~~-----------------------------| 
D|-----8-----------3~---------------------------7-8-10-----------------------| 
A|---------------------------------------------------------------------------| 
E|---------------------------------------------------------------------------| 

e|---------------------------------------------------------------------------| 
B|-------------------6b-------------------------7-8-10-----------------------| 
G|-/7~~--5-7-5-3-5------8-7-8br~-5-7-8~--7-5-7~~-----------------------------| 
D|-----8-----------3~--------------------------------------------------------| 
A|---------------------------------------------------------------------------| 
E|---------------------------------------------------------------------------| 

e|--------------------|------------------------------------------------------| 
B|-------8------------|-/8-10-11-10-----8~-----------------------------------| 
G|-/8-10---10---10-7~~|------------10-7--------------------------------------| 
D|-----------10-------|------------------------------------------------------| 
A|--------------------|------------------------------------------------------| 
E|--------------------|------------------------------------------------------| 

                                                                       pm.(16x) 
e|---------------------------13-11---------------------------------13-|------| 
B|-/11-13-14-13-----11-13-14-------13-14~-11-13-14~~/16~~13-1416~~----|------| 
G|-------------13-----------------------------------------------------|------| 
D|---------------15---------------------------------------------------|-8----| 
A|--------------------------------------------------------------------|------| 
E|--------------------------------------------------------------------|------| 

e|---------------------------------18--16--18--------------------------------| 
B|---16-18-----16-18-16-18--16-18--------------------------------------------| 
G|-15-----15-15-----------15-----15--15--15----------------------------------| 
D|---------------------------------------------------------------------------| 
A|---------------------------------------------------------------------------| 
E|---------------------------------------------------------------------------| 

e|---------------------------------18--16------|---------|----------|--------| 
B|---16-18-----16-18-16-18--16-18----------18p-|---------|----------|--------| 
G|-15-----15-15-----------15-----15--15--15----|-3~~-2p--|----------|--------| 
D|---------------------------------------------|-3~~-2p--|-10/11~~--|-8p-----| 
A|---------------------------------------------|-1~~-0p--|-8/9~~----|-6p-----| 
E|---------------------------------------------|---------|----------|--------| 

e|--------------------------|------------------------------------------------| 
B|--------------------------|------------------------------------------------| 
G|-/10-11p---/15-14--10-11p-|-/8--8/10-11p---/15-14-10p----------------------| 
D|--------------------------|---10-------------------------------------------| 
A|--------------------------|------------------------------------------------| 
E|--------------------------|------------------------------------------------| 

END 


THANK YOU! :) 
		  

Full key step upFull key step up
Half key step upHalf key step up
Half key step downHalf key step down
Full key step downFull key step down
hide glossary

See also:

tabs Raf - Draculas Castle Castlevania Sotn Sound Track tabs Andrea Bocelli - Romanza
e-chords

Other versions:

tabs Raf - Draculas Castle Castlevania Sotn Sound Track
auto scroll beats size up size down change color hide chords drawings
tab show chords e-chords YouTube Clip e-chords hide all tabs e-chords go to top tab

share