Queens Of The Stone Age

Villains Of Circumstance

Queens Of The Stone Age

tabs

by  ADALGOMES

save to print version add songbook text version e-mail correct tuner
chordsukulelecavacokeyboardtabbassdrumsharmonicaflute Guitar Pro
close

there isn't a video lesson for this song

chords

Villains Of Circumstance

	  		 


VERSE 
e|-----------------------------------------------| 
B|-----------------------------------------------| 
G|-7--7--7--9--11-11--11---6--6--6--6--3-3--3-| 
D|-x--x--x--x--x--x---x----x--x--x--x--x-x--x-----| 
A|-x--x--x--x--x--x---x----x--x--x--x--x-x--x-| 
E|-7--7--7--9--10-10--10---6--6--6--6--2-2--2-----------------| 



Chorus 
e|---------------------------------------------------------------| 
B|---------------------------------------------------------------| 
G|-4--4--4--4--6--6--6--6--11--11--11--11--3--4--4--4------------| 
D|-x--x--x--x--x--x--x--x--x---x---x---x---x--x--x--x------------| 
A|-x--x--x--x--x--x--x--x--x---x---x---x---x--x--x--x------------| 
E|-3--3--3--3--5--5--5--5--10--10--10--10--2--3--3--3------------| 

e|---------------------------------------------------------------| 
B|---------------------------------------------------------------| 
G|-7--7--7--7--6--6--6--6--11--11--11--11--4--4--4--4------------| 
D|-x--x--x--x--x--x--x--x--x---x---x---x---x--x--x--x------------| 
A|-x--x--x--x--x--x--x--x--x---x---x---x---x--x--x--x------------| 
E|-7--7--7--7--5--5--5--5--10--10--10--10--3--3--3--3------------| 

e|---------------------------------------------------------------| 
B|---------------------------------------------------------------| 
G|-6--6--6--6--7--6--11--4--6--6--6--6--7--6--11--4--6--6--6--6--| 
D|-x--x--x--x--x--x--x---x--x--x--x--x--x--x--x---x--x--x--x--x--| 
A|-x--x--x--x--x--x--x---x--x--x--x--x--x--x--x---x--x--x--x--x--| 
E|-5--5--6--6--7--5--10--3--5--5--6--6--7--5--10--3--5--5--6--6--| 


OUTRO 
e|-------------------------------------------------------------------------------------------| 
B|-------------------------------------------------------------------------------------------| 
G|-4--4--4--4--3--3--3--3--4--4--4--4--6--6--6--6--6--6--6--6--7--7--7--7--9-9-9-9-9-9-9-9---| 
D|-x--x--x--x--x--x--x--x--x--x--x--x--x--x--x--x--x--x--x--x--x--x--x--x--x-x-x-x-x-x-x-x---| 
A|-x--x--x--x--x--x--x--x--x--x--x--x--x--x--x--x--x--x--x--x--x--x--x--x--x-x-x-x-x-x-x-x---| 
E|-3--3--3--3--2--2--2--2--3--3--3--3--5--5--5--5--6--6--6--6--7--7--7--7--9-9-9-9-9-9-9-9---| 

e|----------------------------------------------------------------------------------------------------| 
B|----------------------------------------------------------------------------------------------------| 
G|-11-11-11-11-11-11-11-11-12-12-12-12-12-12-12-12-14-14-14-14-14-14-14-14-16-16-16-16-16-16-16-16-16-| 
D|-x--x--x--x--x--x--x--x--x--x--x--x--x--x--x--x--x--x--x--x--x--x--x--x--x--x--x--x--x--x--x--x--x--| 
A|-x--x--x--x--x--x--x--x--x--x--x--x--x--x--x--x--x--x--x--x--x--x--x--x--x--x--x--x--x--x--x--x--x--| 
E|-10-10-10-10-10-10-10-10-12-12-12-12-12-12-12-12-14-14-14-14-14-14-14-14-15-15-15-15-15-15-15-15-15-| 
		  

See also:

tabs Yes - Roundabout tabs Queen - we will rock you (solo) tabs Status Quo - Whatever you want tabs Eric Clapton - Tears In Heaven (ver. 3) tabs The Beatles - Blackbird tabs Billy Idol - White Wedding
e-chords

Other versions:

tabs Queens Of The Stone Age - Villains Of Circumstance
auto scroll beats size up size down change color hide chords drawings
tab show chords e-chords YouTube Clip e-chords hide all tabs e-chords go to top tab

share