Queens Of The Stone Age

The Sky Is Fallin'

Queens Of The Stone Age

tabs Advanced advanced

save to print version add songbook text version e-mail correct tuner
chordsukulelecavacokeyboardtabbassdrumsharmonicaflute Guitar Pro
close

there isn't a video lesson for this song

chords

The Sky Is Fallin'

	  		 
Afinação: Eb ( D# A# F# C# G# D# ) 
 
----****---- 
Riffs 
----****---- 
 
 
 
Riff 1: 
||----------------------------------|--------------------------------| 
||----------------------------------|--------------------------------| 
||--9----11--6----7--6----7--4------|--9----11--6----7--6------------| 
||----------------------------------|--------------------------------| 
||--7----9---4----5--4----5--2------|--7----9---4----5--4------------| 
||----------------------------------|--------------------------------| 
 
|-------------------------------------|-----------------------------| 
|-------------------------------------|-----------------------------| 
|--9----11--6----7--6----6-7-9----7-6-|--4--------6--6r-------------| 
|-------------------------------------|-----------------------------| 
|--7----9---4----5--4----4-5-7----5-4-|--2--------4--4r-------------| 
|-------------------------------------|-----------------------------| 
 
 
 
Riff 2: 
|----------------------------------|--------------------------------| 
|----------------------------------|--------------------------------| 
|--9----11--6----7--6----7--4------|--9----11--6----7--6------------| 
|----------------------------------|--------------------------------| 
|--7----9---4----5--4----5--2------|--7----9---4----5--4------------| 
|----------------------------------|--------------------------------| 
 
|-------------------------------------| 
|-------------------------------------| 
|--9----11--6----7--6----6-7-9----7-6-| 
|-------------------------------------| 
|--7----9---4----5--4----4-5-7----5-4-| 
|-------------------------------------| 
 
|-----------------------------------------|| 
|-----------------------------------------|| 
|--4--------------------------------------|| 
|-----------2--4--5-5-5-5-5-5-5-5-5-5-5-5-|| 
|--2--------2--4--5-5-5-5-5-5-5-5-5-5-5-5-|| 
|-----------------------------------------|| 
 
 
 
Riff 3: 
|----------------------------------------------| 
|----------------------------------------------| 
|----------------------------------------------| 
|----------------------------------------------| 
|--2-0-2-4-2--2-0-2-4-2--2-0-2-4-2--2-0-2-4-2--| 
|--0-0-0-0-0--0-0-0-0-0--0-0-0-0-0--0-0-0-0-0--| 
 
|--------------------------------------------------| 
|--------------------------------------------------| 
|--------------------------------------------------| 
|--------------------------4-4-4-4-4-4-------------| 
|--4-4-4-4-4-4-5-5-5-5-5-5-------------5-5-5-5-5-5-| 
|--3-3-3-3-3-3-3-3-3-3-3-3-3-3-3-3-3-3-3-3-3-3-3-3-| 
 
 
 
Riff 4: 
D#||--------------------------------------------------| 
A#||--------------------------------------------------| 
F#||--------------------------------------------------| 
C#||--------------------------------------------------| 
G#||--7-7-7-7-7-7-7-7-7-7-7-7-7-7-7-7-7-7-7-7-7-7-7-7-| 
D#||--5-5-5-5-5-5-5-5-5-5-5-5-4-4-4-4-4-4-4-4-4-4-4-4-| 
 
--------------------------------------------------| 
--------------------------------------------------| 
--------------------------------------------------| 
--------------------------------------------------| 
--5-5-5-5-5-5-5-5-5-5-5-5-9-9-9-9-9-9-9-9-9-9-9-9-| 
--3-3-3-3-3-3-3-3-3-3-3-3-7-7-7-7-7-7-7-7-7-7-7-7-| 
 
--------------------------------------------------| 
--------------------------------------------------| 
--------------------------------------------------| 
--------------------------------------------------| 
--7-7-7-7-7-7-7-7-7-7-7-7-7-7-7-7-7-7-7-7-7-7-7-7-| 
--5-5-5-5-5-5-5-5-5-5-5-5-4-4-4-4-4-4-4-4-4-4-4-4-| 
 
--------------------------------------------------|--------------------------|| 
--------------------------------------------------|--------------------------|| 
--------------------------------------------------|--------------------------|| 
--------------------------------------------------|--------------------------|| 
--5-5-5-5-5-5-5-5-5-5-5-5-9-9-9-9-9-9-9-9-9-9-9-9-|--9-9-9-9-9-9-9-9-9-9-9-9-|| 
--3-3-3-3-3-3-3-3-3-3-3-3-7-7-7-7-7-7-7-7-7-7-7-7-|--7-7-7-7-7-7-7-7-7-7-7-7-|| 
 
 
 
Riff 5: 
D#||----------------------------------------------| 
A#||----------------------------------------------| 
F#||----------------------------------------------| 
C#||----------------------------------------------| 
G#||--2-0-2-4-2--2-0-2-4-2--2-0-2-4-2--2-0-2-4-2--| 
D#||--0-0-0-0-0--0-0-0-0-0--0-0-0-0-0--0-0-0-0-0--| 
 
----------------------------------------------|| 
----------------------------------------------|| 
----------------------------------------------|| 
----------------------------------------------|| 
--2-0-2-4-2--2-0-2-4-2--2-0-2-4-2--2-0-2-4-2--|| 
--3-3-3-3-3--3-3-3-3-3--3-3-3-3-3--3-3-3-3-3--|| 
 
 
 
Riff 6: 
D#||--------------------------------------------------| 
A#||--------------------------------------------------| 
F#||--------------------------------------------------| 
C#||--------------------------------------------------| 
G#||--7-7-7-7-7-7-7-7-7-7-7-7-7-7-7-7-7-7-7-7-7-7-7-7-| 
D#||--5-5-5-5-5-5-5-5-5-5-5-5-4-4-4-4-4-4-4-4-4-4-4-4-| 
 
--------------------------------------------------| 
--------------------------------------------------| 
--------------------------------------------------| 
--------------------------------------------------| 
--5-5-5-5-5-5-5-5-5-5-5-5-9-9-9-9-9-9-9-9-9-9-9-9-| 
--3-3-3-3-3-3-3-3-3-3-3-3-7-7-7-7-7-7-7-7-7-7-7-7-| 
 
--------------------------------------------------------------------------| 
--------------------------------------------------------------------------| 
--------------------------------------------------------------------------| 
--------------------------------------------------------------------------| 
--10-10-10-10-10-10-10-10-10-10-10-10-14-14-14-14-14-14-14-14-14-14-14-14-| 
--8--8--8--8--8--8--8--8--8--8--8--8--12-12-12-12-12-12-12-12-12-12-12-12-| 
 
--------------------------------------------------------------------------| 
--------------------------------------------------------------------------| 
--------------------------------------------------------------------------| 
--------------------------------------------------------------------------| 
--12-12-12-12-12-12-12-12-12-12-12-12-10-10-10-10-10-10-10-10-10-10-10-10-| 
--10-10-10-10-10-10-10-10-10-10-10-10-8--8--8--8--8--8--8--8--8--8--8--8--| 
 
                                                      3x 
|---------------------------|---------------------------|| 
|---------------------------|---------------------------|| 
|*--------------------------|--------------------------*|| 
|*--------------------------|--------------------------*|| 
|---4-4-4-4-4-4-4-4-4-4-4-4-|--5-5-5-5-5-5-5-5-5-5-5-5--|| 
|---2-2-2-2-2-2-2-2-2-2-2-2-|--3-3-3-3-3-3-3-3-3-3-3-3--|| 
 
----------------------------------|| 
----------------------------------|| 
----------------------------------|| 
----------------------------------|| 
----4--4----4--4----4--4----4--4--|| 
--0-2--2--0-2--2--0-2--2--0-2--2--|| 
 
 
 
Riff 7: 
D#||----------------------------------------------| 
A#||----------------------------------------------| 
F#||--4-2-4-6-4--4-2-4-6-4--4-2-4-6-4--4-2-4-6-4--| 
C#||--2-2-2-2-2--2-2-2-2-2--2-2-2-2-2--2-2-2-2-2--| 
G#||----------------------------------------------| 
D#||----------------------------------------------| 
 
----------------------------------------------|| 
----------------------------------------------|| 
--4-2-4-6-4--4-2-4-6-4--4-2-4-6-4--4-2-4-6-4--|| 
--5-5-5-5-5--5-5-5-5-5--5-5-5-5-5--5-5-5-5-5--|| 
----------------------------------------------|| 
----------------------------------------------|| 
 
 
 
Solo: 
D#||-------------------------------------|------------------------------------| 
A#||-----------7--8---------7h8h7---7/8--|--10----------8h10h8h7--------------| 
F#||--9--------------9------------9------|-----------------------8------------| 
C#||-------------------------------------|------------------------------------| 
G#||-------------------------------------|------------------------------------| 
D#||-------------------------------------|------------------------------------| 
 
---------------------------------12--10/---| 
------7-8/10-10----10/12-12----------------| 
--9----------------------------------------| 
-------------------------------------------| 
-------------------------------------------| 
-------------------------------------------| 
 
------------------------------------------| 
--7----------7h8h7---7------7h8h7---10----| 
-------------------9--------------9-------| 
------------------------------------------| 
------------------------------------------| 
------------------------------------------| 
 
------------------------------------------------------| 
--12-----------------------------12----10--8--10--12--| 
--------11h12h11/9----11h12h11-9----------------------| 
------------------------------------------------------| 
------------------------------------------------------| 
------------------------------------------------------| 
 
----------------------------------|-------------------------------| 
--7----------7h8h7---7------------|---------7------8------10------| 
-------------------9--------------|--9----------------------------| 
----------------------------------|-------------------------------| 
----------------------------------|-------------------------------| 
----------------------------------|-------------------------------| 
 
------------------------------------------------------------------|| 
--12-12-12-12-12-12-12-12-12-12-12-12-12-12-12-12-12-12-12/16-----|| 
------------------------------------------------------------------|| 
------------------------------------------------------------------|| 
------------------------------------------------------------------|| 
------------------------------------------------------------------|| 
----****---- 
Música 
----****---- 
 
Intro:  Riff 1(1x) + Riff 2(1x) 
	 
	Riff 3(2x) 
 
 
Riff 3(1x) 
The sky is falling 
Human race that we run 
 
Riff 3(1x) 
It left me crawling 
Staring straight at the sun 
 
Riff 3(1x) 
Only a moment I notice 
Every dog has his day 
 
Riff 3(1x) 
I paid attention 
Cost me so much to today 
 
 
Riff 4(1x) 
For so long 
I saw only wrong 
But now to remind 
It's a waste of time 
 
 
Riff 5(1x) 
Close your eyes and see the skies are falling 
 
 
Riff 5(1x) 
Close your eyes and see the skies are falling 
 
 
Riff 2(1x) 
 
 
Riff 3(2x) 
 
 
Riff 3(1x) 
I wanted something 
Nothing blank I don't know 
 
Riff 3(1x) 
It's all deflecting 
Stones are easy to throw 
 
Riff 3(1x) 
Only a moment I notice 
Hours, days left behind 
 
Riff 3(1x) 
Of wasted, useless 
Selfless, none of a kind 
 
 
Riff 6(1x) 
For so long 
I saw only wrong 
But now to remind 
Not to go back to the low 
That has drained my life so low 
That has drained my life so low 
That has drained my life so low 
 
 
 
Riff 5(1x) 
Close your eyes and see the skies are falling 
 
 
Riff 5(1x) 
Close your eyes and see the skies are falling 
 
 
Riff 7(1x) 
Close your eyes and see the skies are falling 
 
 
Riff 7(1x) 
Close your eyes and see the skies are falling 
 
 
Solo (1x) 
 
 
Riff 5(1x) 
Close your eyes and see the skies are falling 
 
 
Riff 5(1x) 
Close your eyes and see the skies are falling 
 
 
Riff 5(1x) 
Close your eyes and see the skies are falling 
 
 
Riff 5(1x) 
Close your eyes and see the skies are falling 
 
 
_______________________________________________________ 
Contribuição: Henrique Pontes([email protected])  
		  

Full key step upFull key step up
Half key step upHalf key step up
Half key step downHalf key step down
Full key step downFull key step down
hide glossary

See also:

tabs The Smiths - Heaven Knows I'm Miserable Now tabs Eagles - Hotel California tabs The Beatles - All My Loving tabs Deep Purple - Smoke On The Water (Easy Intro) tabs Dire Straits - Sultans of Swing tabs Santana - Maria Maria
e-chords

Other versions:

tabs Queens Of The Stone Age - The Sky Is Fallin'
auto scroll beats size up size down change color hide chords drawings
tab show chords e-chords YouTube Clip e-chords hide all tabs e-chords go to top tab

share