Queens Of The Stone Age

Tangled Up in Plaid

Queens Of The Stone Age

tabs Beginner beginner

by  NICK D

save to print version add songbook text version e-mail correct tuner
chordsukulelecavacokeyboardtabbassdrumsharmonicaflute Guitar Pro
close

there isn't a video lesson for this song

chords

Tangled Up in Plaid

	  		Intro  
Guitar I  
 
|-14-15-14-12-11-12-14-15-12-11-9-11-14-15-14-12-11-12-14-15-14-12-11-12-| 
|------------------------------------------------------------------------| 
|------------------------------------------------------------------------| 
|------------------------------------------------------------------------| 
|------------------------------------------------------------------------| 
|------------------------------------------------------------------------| 
 
Guitar II (high reverb with slight distortion) 
|-14~---------12-14~---15-12~--------12-17~------19-14~---12-11-12--20~--| 
|------------------------------------------------------------------------| 
|------------------------------------------------------------------------| 
|------------------------------------------------------------------------| 
|------------------------------------------------------------------------| 
|------------------------------------------------------------------------| 
 
Guitar I Cont. 
|-14-15-14-----| 
|--------------| 
|----------9~--| 
|----------9~--| 
|----------7~--| 
|--------------| 
 
Guitar II Cont. 
|----------14~-| 
|--------------| 
|--------------| 
|--------------| 
|--------------| 
|--------------| 
 
Verse 
Guitar I (medium distortion) 
   G                         G sharp  
|-----------------------------------------------------| 
|-----------------------------------------------------| 
|-----------------------------------------------------| 
|-/9-9-9-9-9-9-9-9-9-9-9-10-10--10--10-10-10-101010---| 
|-/9-9-9-9-9-9-9-9-9-9-9-10-10--10--10-10-10-101010---| 
|-/7-7^0-7-7^0-7-7^0h7^0-8--8^0-8^0-8--8--8--8^8^8^0--| 
  G                     G sharp       C  
|------------------------------------------| 
|------------------------------------------| 
|------------------------------------------| 
|-9-9-9-9-9-9-9-9-9-9-9-10-10--10-10--14~--| 
|-9-9-9-9-9-9-9-9-9-9-9-10-10--10-10--14~--| 
|-7-7p0-7^0-7^0-7-0-7-0-8--8^0-8--8^0-12~--| 
 
Guitar II fill 
|------------------------------| 
|------------------------------| 
|-14--12p11/8~~~~-------9~~~~--| 
|------------------------------| 
|------------------------------| 
|------------------------------| 
 
Guitar I Verse 
  I Slipped  Didn't Mean, Didn't Mean to Do it That  
|--------------------------------------------------| 
|--------------------------------------------------| 
|--------------------------------------------------| 
|-9-9-9-9-9-9-9-9-9-9-9-10-10--10-10--10---10--10--| 
|-9-9-9-9-9-9-9-9-9-9-9-10-10--10-10--10---10--10--| 
|-7-7p0-7^0-7^0-7-0-7-0-8--8^0-8--8^0-8-^0-8p0-8p0-| 
 
 Way  Well I Blew in on a Whim  Gone Tomorrow I'm Gone 
|----------------------------------------------------| 
|----------------------------------------------------| 
|----------------------------------------------------| 
|-9-9-9-9-9-9-9-9-9-9-9-10-10--10--10-10-10-101010---| 
|-9-9-9-9-9-9-9-9-9-9-9-10-10--10--10-10-10-101010---| 
|-7-7^0-7-7^0-7-7^0h7^0-8--8^0-8^0-8--8--8--8^8^8^0--| 
 
Guitar II Lead 
|-----------11-12--14--19~~~~~--| 
|-------------------------------| 
|-------------------------------| 
|-------------------------------| 
|-------------------------------| 
|-------------------------------| 
 
 Today      Oh Yeah             Oh Yeah  
|--------------------------------------------------| 
|--------------------------------------------------| 
|--------------------------------------------------| 
|-9-9-9-9-9-9-9-9-9-9-9-10-10--10-10--10---10--10--| 
|-9-9-9-9-9-9-9-9-9-9-9-10-10--10-10--10---10--10--| 
|-7-7p0-7^0-7^0-7-0-7-0-8--8^0-8--8^0-8-^0-8p0-8p0-| 
 
Guitar II Lead 
|-----------------------------------------------------------| 
|-----------------------------------------------------------| 
|------------------------------------9^^-11^(harmonic)~~~~~-| 
|-----------------------------------------------------------| 
|-----------------------------------------------------------| 
|-----------------------------------------------------------| 
 
  Whoa-oohwhoa-oohwhoa-yeah                Hangin' 
|--------------------------------------------------| 
|--------------------------------------------------| 
|--------------------------------------------------| 
|-9-9-9-9-9-9-9-9-9-9-9-10-10--10-10--10---10--10--| 
|-9-9-9-9-9-9-9-9-9-9-9-10-10--10-10--10---10--10--| 
|-7-7p0-7^0-7^0-7-0-7-0-8--8^0-8--8^0-8-^0-8p0-8p0-| 
 
Guitar II 
|---------------------------------------14~~~~~~~~-| 
|--------------------------------------------------| 
|--------------------------------------------------| 
|--------------------------------------------------| 
|--------------------------------------------------| 
|--------------------------------------------------| 
  Low            Hangin' Low          Whoa-ooh-oh 
|----------------------------------------------------| 
|----------------------------------------------------| 
|----------------------------------------------------| 
|-9-9-9-9-9-9-9-9-9-9-9-10-10--10--10-10-10-101010---| 
|-9-9-9-9-9-9-9-9-9-9-9-10-10--10--10-10-10-101010---| 
|-7-7^0-7-7^0-7-7^0h7^0-8--8^0-8^0-8--8--8--8^8^8^0--| 
 
Guitar II lead 
|-----------------------------------------12~----15~-17~--12~-| 
|-------------------------------------------------------------| 
|-------------------------------------------------------------| 
|-------------------------------------------------------------| 
|-------------------------------------------------------------| 
|-------------------------------------------------------------| 
               Hangin' Low                   
|---------------------------------------| 
|---------------------------------------| 
|---------------------------------------| 
|-9-9-9-9-9-9-9-9-9-9-9-10-10--10--14~--| 
|-9-9-9-9-9-9-9-9-9-9-9-10-10--10--14~--| 
|-7-7^0-7-7^0-7-7^0h7^0-8--8^0-8^0-12~--| 
 
Both Guitars (Heavy Distortion) 
|----------| 
|----------| 
|----------| 
|-10--10---| 
|-10--10---| 
|-8p0-8p0--| 
       Come Let's Play Along and  Let Each Other   
|--------------------------------------------------| 
|--------------------------------------------------| 
|--------------------------------------------------| 
|-9-9-9-9-9-9-9-9-9-9-9-10-10--10-10--10---10--10--| 
|-9-9-9-9-9-9-9-9-9-9-9-10-10--10-10--10---10--10--| 
|-7-7p0-7^0-7^0-7-0-7-0-8--8^0-8--8^0-8-^0-8p0-8p0-| 
 
 Lose A Win Would Cause an Alarm  Don't Matter to Me Don't Matter 
|------------------------------------------------------------| 
|------------------------------------------------------------| 
|------------------------------------------------------------| 
|-9-9-9-9-9-9-9-9-9-9-9-10-10--10--10-10-10-10-10-10-10-10---| 
|-9-9-9-9-9-9-9-9-9-9-9-10-10--10--10-10-10-10-10-10-10-10---| 
|-7-7^0-7-7^0-7-7^0h7^0-8--8^0-8---8--8--8--8--8--8--8--8----| 
 
 To You      Oh Yeah    Oh Yeah 
|--------------------------------------------------| 
|--------------------------------------------------| 
|--------------------------------------------------| 
|-9-9-9-9-9-9-9-9-9-9-9-10-10--10-10--10---10--10--| 
|-9-9-9-9-9-9-9-9-9-9-9-10-10--10-10--10---10--10--| 
|-7-7p0-7^0-7^0-7-0-7-0-8--8^0-8--8^0-8-^0-8p0-8p0-| 
 
  Whoa-oohwhoa-oohwhoa-yeah 
|----------------------------------------------| 
|----------------------------------------------| 
|----------------------------------------------| 
|-9-9-9-9-9-9-9-9-9-9-9-10-10--10-10--10---10--| 
|-9-9-9-9-9-9-9-9-9-9-9-10-10--10-10--10---10--| 
|-7-7p0-7^0-7^0-7-0-7-0-8--8^0-8--8^0-8-^0-8p0-| 
 
Chorus (Heavy Distortion) 
 
    A sharp            C  A sharp            C                        
                     If I Could Keep You All For 
|-----------------------------------------------| 
|-----------------------------------------------| 
|-----------------------------------------------| 
|-3/12p10-12p10-12p10-/14-12p10-12p10-12p10-/14-| 
|-3/12p10-12p10-12p10-/14-12p10-12p10-12p10-/14-| 
|-1/10-10-10-10-10-10-/12-10-10-10-10-10-10-/12-| 
  
  G sharp         C G sharp          C  
  Myself             I Know You Gotta Be 
|---------------------------------------| 
|---------------------------------------| 
|---------------------------------------| 
|-10p8-10p8-10p8-/14-10p8-10p8-10p8-/14-| 
|-10p8-10p8-10p8-/14-10p8-10p8-10p8-/14-| 
|-8--8-8--8-8--8-/12-8--8-8--8-8--8-/12-| 
 
  F          C   F          C   G sharp         C  G sharp         C     
  Free                  So Free Yourself       
|----------------------------------------------------------------------| 
|----------------------------------------------------------------------| 
|----------------------------------------------------------------------| 
|-7-7-7-7-7--14--7-7-7-7-7--14--10p8-10p8-10p8-/14-10p8-10p8-10p8-/14--| 
|-7-7-7-7-7--14--7-7-7-7-7--14--10p8-10p8-10p8-/14-10p8-10p8-10p8-/14--| 
|-5-5-5-5-5--12--5-5-5-5-5--12--8--8-8--8-8--8-/12-8--8-8--8--8-8-/12--| 2x 
 
Verse II 
                  Hangin' Low           Ooooohoh 
|------------------------------------------------------| 
|------------------------------------------------------| 
|------------------------------------------------------| 
|-3/9-9-9-9-9-9-9-9-9-9-9-10-10--10--10-10-10-101010---| 
|-3/9-9-9-9-9-9-9-9-9-9-9-10-10--10--10-10-10-101010---| 
|-1/7-7^0-7-7^0-7-7^0h7^0-8--8^0-8^0-8--8--8--8^8^8^0--| 
 
 
 Hangin' Low 
|----------------------------------------------------| 
|----------------------------------------------------| 
|----------------------------------------------------| 
|-9-9-9-9-9-9-9-9-9-9-9-10-10--10-10----9---14---10\-| 
|-9-9-9-9-9-9-9-9-9-9-9-10-10--10-10----9---14---10\-| 
|-7-7p0-7^0-7^0-7-0-7-0-8--8^0-8--8^0-0-7-0-12-0--8\-| 
 
Lead 
|------------------------------------------------------------| 
|------------------------------------------------------------| 
|-------------------------------------------------14^/16~~~--| 
|------------------------------------------------------------| 
|------------------------------------------------------------| 
|------------------------------------------------------------| 
         Self-Inflicted Wound Your Gift Impeccable Aim  
|--------------------------------------------------| 
|--------------------------------------------------| 
|--------------------------------------------------| 
|-9-9-9-9-9-9-9-9-9-9-9-10-10--10-10--10---10--10--| 
|-9-9-9-9-9-9-9-9-9-9-9-10-10--10-10--10---10--10--| 
|-7-7p0-7^0-7^0-7-0-7-0-8--8^0-8--8^0-8-^0-8p0-8p0-| 
 
 Can Really Clear a Room            All the Bodies Pile Up in 
|-------------------------------------------------------------| 
|-------------------------------------------------------------| 
|-------------------------------------------------------------| 
|-9-9-9-9-9-9-9-9-9-9-9-10-10-10--10-10-10-10-10-10-10-10-10--| 
|-9-9-9-9-9-9-9-9-9-9-9-10-10-10--10-10-10-10-10-10-10-10-10--| 
|-7-7^0-7-7^0-7-7^0h7^0-8--8--8---8--8--8--8--8--8--8--8--8---| 
 
  Your Way   Oh Yeah   So Bad      Whoaoohohyeah 
|--------------------------------------------------| 
|--------------------------------------------------| 
|--------------------------------------------------| 
|-9-9-9-9-9-9-9-9-9-9-9-10-10--10-10--10---10--10--| 
|-9-9-9-9-9-9-9-9-9-9-9-10-10--10-10--10---10--10--| 
|-7-7p0-7^0-7^0-7-0-7-0-8--8^0-8--8^0-8-^0-8p0-8p0-| 
 
Lead 
|--------------------------------------------------------| 
|--------------------------------------------------------| 
|-7^/9^~~~~~~~~~~~~~~~8^/9^~~~~~~~~~~9^/11^~~~~~~~~~~~~--| 
|--------------------------------------------------------| 
|--------------------------------------------------------| 
|--------------------------------------------------------| 
 
Chorus II 
Chorus (Heavy Distortion) 
 
    A sharp            C  A sharp            C                        
                     If I Could Keep You All For 
|-----------------------------------------------| 
|-----------------------------------------------| 
|-----------------------------------------------| 
|-3/12p10-12p10-12p10-/14-12p10-12p10-12p10-/14-| 
|-3/12p10-12p10-12p10-/14-12p10-12p10-12p10-/14-| 
|-1/10-10-10-10-10-10-/12-10-10-10-10-10-10-/12-| 
  
  G sharp         C G sharp          C  
  Myself             I Know You Gotta Be 
|---------------------------------------| 
|---------------------------------------| 
|---------------------------------------| 
|-10p8-10p8-10p8-/14-10p8-10p8-10p8-/14-| 
|-10p8-10p8-10p8-/14-10p8-10p8-10p8-/14-| 
|-8--8-8--8-8--8-/12-8--8-8--8-8--8-/12-| 
 
  F          C   F          C   G sharp         C  G sharp         C     
  Free                  So Free Yourself ("So Kill Yourself" 2nd time)      
|----------------------------------------------------------------------| 
|----------------------------------------------------------------------| 
|----------------------------------------------------------------------| 
|-7-7-7-7-7--14--7-7-7-7-7--14--10p8-10p8-10p8-/14-10p8-10p8-10p8-/14--| 
|-7-7-7-7-7--14--7-7-7-7-7--14--10p8-10p8-10p8-/14-10p8-10p8-10p8-/14--| 
|-5-5-5-5-5--12--5-5-5-5-5--12--8--8-8--8-8--8-/12-8--8-8--8--8-8-/12--| 2x 
 
Solos (two leads over bass driven Chorus rhythm) not so much dueling, 
more walzting leads 
 
Guitar I (the end notes are tremloe picked)  
|----------------------------------------------------------| 
|----------------------------------------------------------| 
|-11^(12)-11~~~-11^(12)-11~~~-11h12p9~~~-9/12\9~~~---------| 
|----------------------------------------------------------| 
|----------------------------------------------------------| 
|----------------------------------------------------------| 
 
|----------------------------------------| 
|----------------------------------------| 
|-12/6~~~~--12/6~~~~--5~~~~-5/12\5~~~~~--| 
|----------------------------------------| 
|----------------------------------------| 
|----------------------------------------| 
After This point Guitar I plays Chorus rhythm while other guitar pushes out 
more lead 
 
Guitar II Lead  
 
|-14^(15)-14~~-14^(15)-14~~~-14h15p14/12~~~--12/15\12~~~~--| 
|----------------------------------------------------------| 
|----------------------------------------------------------| 
|----------------------------------------------------------| 
|----------------------------------------------------------| 
|----------------------------------------------------------| 
 
|-15\9~~~~--15\9~~~~-----------------------12~~~--| 
|--------------------10h12-12^(13)~~~-12-10-------| 
|-------------------------------------------------| 
|-------------------------------------------------| 
|-------------------------------------------------| 
|-------------------------------------------------| 
 
*Guitar I goes back to rhythm  
|----------------------------------------------------------------------| 
|----------------------------------------------------------------------| 
|----------------------------------------------------------------------| 
|-7-7-7-7-7--14--7-7-7-7-7--14--10p8-10p8-10p8-/14-10p8-10p8-10p8-/14--| 
|-7-7-7-7-7--14--7-7-7-7-7--14--10p8-10p8-10p8-/14-10p8-10p8-10p8-/14--| 
|-5-5-5-5-5--12--5-5-5-5-5--12--8--8-8--8-8--8-/12-8--8-8--8--8-8-/12--| 3x 
 
Guitar II 
|-15/9~~~~-15/9~~~~--17h19-19^(20)-19-17-22^(23)-22^(23)~~~--| 
|------------------------------------------------------------| 
|------------------------------------------------------------| 
|------------------------------------------------------------| 
|------------------------------------------------------------| 
|------------------------------------------------------------| 
 
|-\21~~~--21\12~~~--12/17~-15~-19~-12~--| 
|---------------------------------------| 
|---------------------------------------| 
|---------------------------------------| 
|---------------------------------------| 
|---------------------------------------| 
 
|-12h15p12/9~~~-12h15p12/8~~~--5h7-8~~-7-5-12~~~--| 
|-------------------------------------------------| 
|-------------------------------------------------| 
|-------------------------------------------------| 
|-------------------------------------------------| 
|-------------------------------------------------| 
 
Guitar II  
|------| 
|------| 
|------| 
|-3/9--| 
|-3/9--| 
|-1/7--| 
 

		  

See also:

tabs The Smiths - Heaven Knows I'm Miserable Now tabs Eagles - Hotel California tabs The Beatles - All My Loving tabs Deep Purple - Smoke On The Water (Easy Intro) tabs Dire Straits - Sultans of Swing tabs Santana - Maria Maria
e-chords

Other versions:

tabs Queens Of The Stone Age - Tangled Up in Plaid
auto scroll beats size up size down change color hide chords drawings
tab show chords e-chords YouTube Clip e-chords hide all tabs e-chords go to top tab

share