Queens Of The Stone Age

Sick,sick,sick

Queens Of The Stone Age

tabs Intermediate intermediate

by  INDESTRUCTIBLE

save to print version add songbook text version e-mail correct tuner
chordsukulelecavacokeyboardtabbassdrumsharmonicaflute Guitar Pro
close

there isn't a video lesson for this song

chords

Sick,sick,sick

	  		   Intro 
E-x-x---x-x-------------------------------| 
B-x-x---x-x-------------------------------| 
G-x-x---x-x-------------------------------| Guitar 1 
D-x-x---x-x-5-5-5--3-3-3--5-5-5-----2-----| 
A-x-x---x-x-5-5-5--3-3-3--5-5-5---5-------| 
E-x-x---x-x-3-3-3--3-3-3--3-3-3-0-----5-2-| 

E-x-x---x-x-------------------------------| 
B-x-x---x-x-------------------------------| 
G-x-x---x-x-------------------------------| Guitar 2 
D-x-x---x-x-3-3-3--2-2-2--5-5-5-----2-----| 
A-x-x---x-x-3-3-3--2-2-2--5-5-5---5-------| 
E-x-x---x-x-3-3-3--2-2-2--5-5-5-0-----5-2-| 

    Verse 
E------------------------------------------------| 
B------------------------------------------------| 
G------------------------------------------------| Guitar1 
D-----2------------3---4-----4--------2-3--------| 
A---5------------5---2---------2----3-----3h5----| 
E-0-----5-2--4-4---------5-2----0-2----------5h7-| 

E-------------------------------------------------| 
B-----3-3-3---------------------------------------| 
G-2---3-3-3-2-2-2---------------------------------| Guitar2 
D-0-5-3-3-3-2-2-2-4-4-4------4---------2-3--------| 
A-0-5-------0-0-0-4-4-4--------2-----3-----3h5----| 
E---5-------------2-2-2--5-2-----0-2----------5h7-| 

    Bridge 
E-----------------------------| 
B-----2---------------5-5-5-5-| 
G-5---2---2-2-2-------5-5-5-5-| 
D-5-4-2-4-2-2-2-2-2-2-5-5-5-5-| 
A-5-4---4-0-0-0-2-2-2---------| 
E---2---4-------0-0-0---------| 
  






    Chorus 
E----------------------------------| 
B----------------------------------| 
G----------------------------------| Guitar 1 & 2 
D-5-5-5-----2------5-5-5-----2-----| 
A-5-5-5---5--------5-5-5---5-------| 
E-5-5-5-0-----5-2--3-3-3-0-----5-2-| 
		  

See also:

tabs Yes - Roundabout tabs Queen - we will rock you (solo) tabs Status Quo - Whatever you want tabs Eric Clapton - Tears In Heaven (ver. 3) tabs The Beatles - Blackbird tabs Billy Idol - White Wedding
e-chords

Other versions:

tabs Queens Of The Stone Age - Sick,sick,sick
auto scroll beats size up size down change color hide chords drawings
tab show chords e-chords YouTube Clip e-chords hide all tabs e-chords go to top tab

share