save to print version add songbook text version e-mail correct tuner
chordsukulelecavacokeyboardtabbassdrumsharmonicaflute Guitar Pro
close

there isn't a video lesson for this song

chords

Rated R

	  		1. 
Alright this is well easy and sounds good really loud.  

Intro:  
   A#5  
e|-------------------------------------  
B|-------------------------------------  
G|-------------------------------------  
D|--8-8-8--8-8--8--8-8--8-8-8----------  
A|--8-8-8--8-8--8--8-8--8-8-8----------  
E|--6-6-6--6-6--6--6-6--6-6-6----------  

repeat that for a long time for the 'Nicotine, Valium...' bit.  

Then for the 'Co-co-co-co-co-co-caine!!!!!!!!!' bit just do  
  A#5    C#5  A#5  
e|-----------------------------------  
B|----------------------------------- h=hammer on  
G|-----------------------------------  
D|-888888811---888888888-8888888-----  
A|-888888811---888888888-8888888-----  
E|-6666666-9---666666666h7666666-----  

Thats the lot really. Just go slightly more nuts later on, listen  
to the song and you should get it no worries.  
Any corrections or suggestions would be appreciated.  

Song: The Lost Art of Keeping a Secret  
Artist: Queens of the Stone Age  
Album: Rated R  

Ok this is the second single off of Rated R and its class.  
This is pretty simple as well although there are two  
guitars playing, one an octave higher on certain bits to give  
it a layered effect but its not that important.  

All guitars tuned down two whole steps to C  
Low to High=C,F,Bb,Eb,G,C  

Im not gonna put how many times you hit each chord unless  
its a little tricky to hear.  

Intro and Verse  
E5   B5   Bb5  A5  
-----------------------------------------------  
-----------------------------------------------  
-9---------------------------------------------  
-9----9----8----7------7b--7-5-----------------  
-7----9----8----7---0-----------7--------------  
-0----7----6----5------------------------------  

Play each chord for a bar each. End with that little fiddle.  

Chorus  
Gtr.1  
E5   B5   Bb5  G5      A5  B5  
------------------------------------------------  
------------------------------------------------  
-9----------------------------------------------  
-9----9----8----5-5-5-5-7-X-9-------------------  
-7----9----8----5-5-5-5-7-X-9-------------------  
-0----7----6----3-3-3-3-5-X-7-------------------  

Gtr.2  
------------------------------------------------  
------------------------------------------------  
-9----16---15---12-12-12-12-14-X-16-------------  
-9----16---15---12-12-12-12-14-X-16-------------  
-7----14---13---10-10-10-10-12-X-14-------------  
-0----------------------------------------------  

These are both played at exactly the same time btw  

Bridge  
Gtr.1  
Bb5  C5    ?    C5 (2nd time only)  
------------------------------------------------  
------------------------------------------------  
-----------16---------0-14b--15b----------------  
-8----10----X----10-----------------------------  
-8----10---14----10-----------------------------  
-6----8----------8------------------------------  

Gtr.2            (2nd time only)  
------------------------------------------------  
------------------------------------------------  
-15---17---16----17-----------------------------  
-15---17----X----17-----------------------------  
-13---15---14----15-----------------------------  
------------------------------------------------  

Hit that ? Octave for about 2 bars or something  

Solo  
Other guitar plays intro/verse chords throughout  
-12b------15b---13b-----------------------------  
-15b--15--18b---16b-----------------------------  
---------------------11b--12b-------------------  
---------------------14b--15b-------------------  
------------------------------------------------  
------------------------------------------------  
Do that twice, except dragging out the bends a little  
more. They're all full bends btw  
Then  
-12b--------15b--------18b---18b---17b----------  
-15b--------18b--------21b---21b---20b----------  
------------------------------------------------  
------------------------------------------------  
------------------------------------------------  
------------------------------------------------  
Really drag out those first 2 bends  

Outro  
I think both guitars play this, probably with a little  
variation in there somewhere.  

------------------------------------------------  
--------------------------------12--------------  
-9-9---------9-9-----------9-9--12--------------  
-9-9--5-7-9--9-9-----5-7-9-9-9--12--5-7-9-------  
-7-7--5-7-9--7-7-----5-7-9-7-7------5-7-9-------  
-0-0--3-5-7--0-0-0-0-3-5-7-0-0------3-5-7-------  

------12b---------------------------------------  
------15b---------------------------------------  
-9------------------9---------------------------  
-9-----------5-7-9--9---------------------------  
-7-----------5-7-9--7---------------------------  
-0---------0-3-5-7--0---------------------------  

Thats it!  


Leg of Lamb  

Tuning - C F Bb Eb G C  

versE|- guitar 1 (left channel)  
------------------------------------------------|  
------------------------------------------------|  
------------------------------------------------|  
---10-11------------------10-11-----------------|  
---------12--9p8h9---9----------12--9p8h9---9---|  
------------------------------------------------|  

versE|- guitar 2 (right channel)  
------------------------------------------|  
------------------------------------------|  
---11-11--------------11-11---------------|  
---11-11--------------11-11---------------|  
---9--9--9.75--9.75----9--9--9.75--9.75---|  
------------------------------------------|  

verse 2 - guitar 2 (guitar 1 plays verse 1 throughout)  
--------------------------------------|  
--------------------------------------|  
---9--9---------------9--9------------|  
---9--9---------------9--9------------|  
---7--7---------------7--7------------|  
---------8.75--8.75--------8.75--8.75-|  

---------------------------------------|  
---------------------------------------|  
---10-10------------10-10--------------|  
---10-10------------10-10--------------|  
----8--8-------------8--8--------------|  
---------9.75--9.75-------9.75--9.75---|  

verse 1  
You're a head case with a smile  
Can't stop to make up your mind  
verse 2  
Education is so lame (so lame)  
verse 1  
When you bitch and you moan  
You're a loose girl, I'm a guy (hey)  
You're a truth freak with a lie  
verse 2  
The situation is so strange  
verse 1  
It's a tv show  
In a hotel on the phone  
You're gonna leave me, I should've known (should've known)  
verse 2  
And I was thinkin, it's so sad  
verse 1  
I didn't want you to go  
Don't wanna follow the laws of man  
Bloody apron, leg of lamb  
verse 2  
It's so hard to win  
verse 1  
When there's so much to lose  

verse 3 play 2x  
------------------------------------------|  
------------------------------------------|  
---11-11--11-11--9-9--9-9--10-10--10-10---|  
---11-11--11-11--9-9--9-9--10-10--10-10---|  
----9--9---9--9--7-7--7-7---8--8---8--8---|  
------------------------------------------|  

----------------------------------------------------|  
----------------------------------------------------|  
----------------------------------------------------|  
---11-11--11-11--12-12--12-12--7-7--7-7--9-9--9-9---|  
---11-11--11-11--12-12--12-12--7-7--7-7--9-9--9-9---|  
----9--9---9--9--10-10--10-10--5-5--5-5--7-7--7-7---|  

------------------|  
------------------|  
------------------|  
---11-11--11-11---|  
---11-11--11-11---|  
----9--9---9--9---|  

Infiltrate the walls that are caving in  
It ain't a bad thing  
This ain't reality  
Infiltrate the walls that are caving in  
It ain't a bad thing  
Because it is natural  

lead 1  
---16fb-16-16-16-16-16---17b-17b-----|  
-------------------------------------|  
-------------------------------------|  
-------------------------------------|  
-------------------------------------|  
-------------------------------------|  

---16fb-16-16-16-16-16--17fb-17-17-17-17-14---|  
----------------------------------------------|  
----------------------------------------------|  
----------------------------------------------|  
----------------------------------------------|  
----------------------------------------------|  
pick while gradually bending  

verse 1  
Second Avenue, raising Cain  
I'm a sinner, ring my bell (hey)  
I'll tell you what, I get up  
If I knew I fell  

Auto Pilot  

Tuning - C F Bb Eb G C  

intro/verse riff:  
-----------------------------------------------|  
-----------------------------------------------|  
---6-8-8-6-8-8-6-6-6--11-11-11--10-10--6-6-6---|  
---6-8-8-6-8-8-6-6-6--11-11-11--10-10--6-6-6---|  
---4h6-6-4h6-6-4-4-4---9--9--9---8--8--4-4-4---|  
-----------------------------------------------|  

intro solo:  
--------------------------------------------------------------------------|  
------16------16---16hb--16hb--16br-14h16p14------------------------------|  
---14------14---------------------------------15--------------------------|  
--------------------------------------------------13--------16-18--18hb---|  
------------------------------------------------------16h18---------------|  
--------------------------------------------------------------------------|  

verse:  
Saw you down there on the marble slab  
The best trip that I've ever had  
High up in a jet plane, pass it around  
My drinks on empty, need another round  

Chorus rhythm:  
-------------------------------------------------------|  
-------------------------------------------------------|  
---8-8-8-8-8-8-8-8--4-4-4-4-4-4-4-4--------------------|  
---8-8-8-8-8-8-8-8--4-4-4-4-4-4-4-4--6-6-6-6-6-6-6-6---|  
---6-6-6-6-6-6-6-6--2-2-2-2-2-2-2-2--6-6-6-6-6-6-6-6---|  
-------------------------------------4-4-4-4-4-4-4-4---|  

Chorus lead:  
---------------------------------------------|  
---------------------------------------------|  
---------------------------------------------|  
---18hbr--18hbr--16h18---------------16------|  
-----------------------18--18--16h18----18---|  
---------------------------------------------|  

Chorus:  
I wanna fly, wanna ride with you  
Is this the best that you can do?  
I wanna fly, wanna ride with you  
High up in a jet plane with you  

fill:  
----------|  
----------|  
---20br---|  
----------|  
----------|  
----------|  

verse:  
When we arrive in the middle of nowhere  
Don't act like you know, I been here so many times  
I never seen you before  

fill  

But now that I have, I don't wanna see you no more  

fill 2x  

High up in a jet plane with you  
High up in a jet plane with you  

Chorus 2 lead:  
-------------------------------------------|  
-------------------------------------------|  
-------------------------------------------|  
---18br--18br--16h18---------------16------|  
---------------------18--18--16h18----18---|  
-------------------------------------------|  

----------------------------------------|  
----------------------------------------|  
----------------------------------------|  
---18br--18br--16h18---------------16---|  
---------------------18--18--16h18------|  
----------------------------------------|  

--------------------------------------------|  
--------------------------------------------|  
---20br--206br---18h20--------------20------|  
----------------------20--20--18h20----18---|  
--------------------------------------------|  
--------------------------------------------|  

--------------------------------------------|  
--------------------------------------------|  
--------------------------------------------|  
---18br--18br--16h18---------------16-------|  
---------------------18--18--16h18----18----|  
--------------------------------------------|  

Chorus:  
I wanna fly, wanna ride with you  
Is this the best that you can do?  
I wanna fly, wanna ride with you  
High up in a jet plane with you  

bridge:  
----------------------------------|----------------------|  
----------------------------------|----------------------|  
---9-9----------------------------|---9-9----------------|  
---9-9--9-9-9-9--11-11--6-6-6-6---|---9-9--9-9-9-9--11---|  
---7-7--9-9-9-9--11-11--6-6-6-6---|---7-7--9-9-9-9--11---|  
--------7-7-7-7---9--9--4-4-4-4---|--------7-7-7-7---9---|  

bridge:  
Ah-ah, auto pilot no control  
Ah-ah, ahh  
Ah-ah, auto pilot no control  
Ah-ah, ahh  

verse:  
High up in a jet plane with you  

fill  

High up in a jet plane with you  

fill  

Chorus:  
I wanna fly, wanna ride with you  
Is this the best that you can do?  
I wanna fly, wanna ride with you  
High up in a jet plane with you  

Chorus lead 4th time:  
-----------------------------------|  
-----------------------------------|  
------------------20--20-18-20br---|  
---18br--18br--16------------------|  
-----------------------------------|  
-----------------------------------|  

outro lead:  
-------------------------------------------|  
-------------------------------------------|  
---20br--20br--18h20---------------18------|  
---------------------20--20--18h20----20---|  
-------------------------------------------|  
-------------------------------------------|  

----------------------------------|-----------------------------------------|  
--------------21b-21-21-19h21-----|--21br--21br--19h21---------------19-----|  
--20br--20br------------------20--|--------------------20--20--18h20----20--|  
----------------------------------|-----------------------------------------|  
----------------------------------|-----------------------------------------|  
----------------------------------|-----------------------------------------|  

Chorus:  
I wanna fly, wanna ride with you  
Is this the best that you can do?  
I wanna fly, wanna ride with you  
High up in a jet plane with you  

Better Living Through Chemistry  

tuning - C F Bb Eb G C  

riff 1:  
---------------------------------------------------------------------------|  
---------------------------------------------------------------------------|  
---------------------------------------------------------------------------|  
----7-7---7--15-15--15--14-14--14--11-11---11-11--11--10-10--10--9-9--9--7-|  
-0-0---0-0--0-----0---0-------0--0------0-0------0---0-----0----0---0--0---|  
---------------------------------------------------------------------------|  

--------------------------------------------------------------------|  
--------------------------------------------------------------------|  
--------------------------------------------------------------------|  
---7---7-7--7--15-15--15--14-14--14--11-11---11-11--11--10-10--10---|  
----0-0---0---0------0--0-------0--0------0-0------0---0-----0------|  
--------------------------------------------------------------------|  

--------------------|  
--------------------|  
--------------------|  
---12-12-12-12h14---|  
--------------------|  
--------------------|  

---------------------------------------------------------------------------|  
---------------------------------------------------------------------------|  
---------------------------------------------------------------------------|  
----7-7---7--15-15--15--14-14--14--11-11---11-11--11--10-10--10--9-9--9--7-|  
-0-0---0-0--0-----0---0-------0--0------0-0------0---0-----0----0---0--0---|  
---------------------------------------------------------------------------|  

---------------------------------------------------------------------------|  
---------------------------------------------------------------------------|  
---------------------------------------------12-12--12---------------------|  
------7-7---7--15-15--15--14-14--14--11-11--------------------12------14---|  
---0-0---0-0--0-----0---0-------0--0------0-0------0-----0-0-0---0-0-0-----|  
---------------------------------------------------------------------------|  

play variations of riff 1 over the verse:  
The blue pill opens your eyes  
Is there a better way  
A new religion prescribed  
To those without the faith  
The hero holding a knife  
And blood is not enough  
Is it too late to go back?  
Is it too late to go?  

riff 2: 7x  
---------------------|  
---------------------|  
---------------------|  
---7-5-7-9-7-5-4-5---|  
---------------------|  
---------------------|  

verse:  
There's no one here  
And people everywhere, you're on your own  

riff 3:  
-----------------------|  
-----------------------|  
-----------------------|  
---7-5-4-2-4-2-4-5-7---|  
-------------------0---|  
-----------------------|  

hold the final note and let it feedback  

riff 4: play 4x  
---------------------------------------------|  
---------------------------------------------|  
---------------------------------------------|  
-----------10-10-10-10---------10-10-10-10---|  
---0-0-0-0-------------0-0-0-0---------------|  
---------------------------------------------|  

-------------------------------------|  
-------------------------------------|  
-------------------------------------|  
-----------9-9-9-9---------9-9-9-9---|  
---0-0-0-0---------0-0-0-0-----------|  
-------------------------------------|  

---------------------------------------------|  
---------------------------------------------|  
---------------------------------------------|  
-----------12-12-12-12---------12-12-12-12---|  
---0-0-0-0-------------0-0-0-0---------------|  
---------------------------------------------|  

---------------------------------------------|  
---------------------------------------------|  
---------------------------------------------|  
-----------14-14-14-14---------14-14-14-14---|  
---0-0-0-0-------------0-0-0-0---------------|  
---------------------------------------------|  

riff 5:  
---------------------------------------|  
-------------------------------15h17---|  
-------------------------12h14---------|  
------------10h12--12h14---------------|  
---12p10h12----------------------------|  
---------------------------------------|  

solo:  
--------------------------------------------------------------------------------|  
----------------------------------------------------------------13--------------|  
-14b---12-14----------12--14b---12-14----------------14b---12-14---14-12--------|  
-------------14-12-14----------------12-14-------14-----------------------12-14-|  
-------------------------------------------12-14--------------------------------|  
--------------------------------------------------------------------------------|  


guitar fade out  

solo continued: 3:18-3:21 2x  
-----------------------------------------------------|  
---14-14-14-17-17-17---------------------------------|  
---------------------17-17-17-14-14-14-12-12-14-14---|  
-----------------------------------------------------|  
-----------------------------------------------------|  
-----------------------------------------------------|  

3:22-3:25 2x  
-----------------------------------------------|  
---13----------13------------------------------|  
------14-12-14----14-12-14-12-14-12-14-12-14---|  
-----------------------------------------------|  
-----------------------------------------------|  
-----------------------------------------------|  

3:26-3:29 5x  
-----------------------|  
---13------------------|  
------14-12-14-12-14---|  
-----------------------|  
-----------------------|  
-----------------------|  

3:30-3:38  
--------------------------------------------------------------------------------|  
--------------------------------------------------------------------------------|  
-19b---17-19-17-------------19b-----------------------19b--17-19-17-------------|  
----------------19-17-15-17-----17-19-17----------------------------19-17-------|  
-----------------------------------------19-17-17-17----------------------19-19-|  
--------------------------------------------------------------------------------|  

3:39-3:48:  
---------|  
---------|  
---14b---|  
---------|  
---------|  
---------|  

riff 5 4x  

end of solo: 3x  
----------------|  
----------------|  
-----------12---|  
---14\--14------|  
----------------|  
----------------|  

play riff 2 3x and riff 3 1x  

play variations of riff 1 over the verse:  
Let's see if I'm hearing this right  
You suggest I should take  
And never endings are glad  
(right channel - A never-ending supply)  
To carry out the dead  
Your idols burn in the fire  
The mob comes crawling out (take us down and out)  
I'm reclaiming my mind  
Destroying everyone  

riff 2 7x:  
There's no one here  
And people everywhere, you're all alone  

riff 3 1x  

riff 2 until the end  

end on:  
-------|  
-------|  
-------|  
---7---|  
---0---|  
-------|  

Monsters in the Parasol  

Tuning - C F Bb Eb G C  

intro/verse:  
-----------------------------|-----------------|  
-----------------------------|-----------------|  
---6-6-6-6-6-6-6-6-6-6-6-6---|---4-4-4-4-4-4---|  
---6-6-6-6-6-6-6-6-6-6-6-6---|---4-4-4-4-4-4---|  
---4-4-4-4-4-4-4-4-4-4-4-4---|---2-2-2-2-2-2---|  
-----------------------------|-----------------|  

verse fill 1:  
-------|  
---4---|  
---6---|  
-------|  
-------|  
-------|  

verse fill 2:  
-------|  
---8---|  
---6---|  
-------|  
-------|  
-------|  

intro  

verse fill 1 4x  

verse:  
The walls are closing in again, oh well  
verse fill 1  
The walls are closing in again, oh well  
verse fill 1  
I seen some thing I thought I never saw  
Covered in hair  
verse fill 1  

verse fill 2  

Paul's dad is warped and bubbling, oh well  
verse fill 1  
Paul's dad is warped and bubbling, oh well  
verse fill 1  
And my mind is up here on another wave  
Covered in hair  

pre|-Chorus: guitar 1 (left channel)  
--------------------------|  
--------------------------|  
--------------------------|  
---11-10-9-8-9-10-11-10---|  
--------------------------|  
--------------------------|  

guitar 2 (right channel):  
---------------------|  
---------------------|  
---------------------|  
---------------------|  
---9-8-7-6-7-8-9-8---|  
---------------------|  

pre|-Chorus:  
She won't grow  

riff 1:  
--------------------------------------------------------------------------|  
--------------------------------------------------------------------------|  
---12-12-12-12-12-12--9-9-9-9-9-9--14-14-14-14-14-14--15-15-15-15-15-15---|  
---12-12-12-12-12-12--9-9-9-9-9-9--14-14-14-14-14-14--15-15-15-15-15-15---|  
---10-10-10-10-10-10--7-7-7-7-7-7--12-12-12-12-12-12--13-13-13-13-13-13---|  
--------------------------------------------------------------------------|  

Chorus: guitar 1  
------------------------------------------------------------------------------|  
------------------------------------------------------------------------------|  
---13-13-13-13-13--------------------------------13-12-13----------13-12-13---|  
------------------14-14-14-14-14--12-12-12-12-12----------12-12-12------------|  
------------------------------------------------------------------------------|  
------------------------------------------------------------------------------|  

guitar 2:  
------------------------------|  
-------------------------11---|  
--------------------9-11------|  
--------11-10---11------------|  
---9--------------------------|  
------------------------------|  

Chorus:  
You've got a monster (distress) in your parasol (body out)  
You've got a monster (dwarves, doors?) in your parasol (of course)  
You've got a monster (displeasure) in your parasol (I told you)  
You've got a monster (?) in your parasol (xnay)  

verse fill 1  

verse fill 2  

verse:  
Paul's sister is an alien, oh well  
verse fill 1  
Paul's sister is an alien, oh well  
verse fill 2  
I seen some things I thought I never saw  
Covered in hair  

pre|-Chorus:  
She won't grow  

Chorus:  
You've got a monster (distress, my pest) in your parasol  
You've got a monster (drawves) in your parasol (war horse)  
You've got a monster (displeasure) in your parasol (?)  
You've got a hole in you I never saw (insane)  
In your parasol, in your parasol  

end on: guitar 1 (left channel)  
--------------------------|  
--------------------------|  
--------------------------|  
---11-10-9-8-9-10-11-10---|  
--------------------------|  
--------------------------|  

guitar 2 (right channel):  
---------------------|  
---------------------|  
---------------------|  
---------------------|  
---9-8-7-6-7-8-9-8---|  
---------------------|  

Quick and to the Pointless  

Tuning - C F Bb Eb G C  

verses 1 and 2  
-------------------|  
-------------------|  
-------------------|  
---6-7-7-7-7-7-7---|  
---6-7-7-7-7-7-7---|  
---4h5-5-5-5-5-5---|  

Chorus  
-------------------------------------|  
-------------------------------------|  
-------------------------------------|  
---9-9-9-9-9-9-9-9-8-8-8-8-8-8-8-8---|  
---9-9-9-9-9-9-9-9-8-8-8-8-8-8-8-8---|  
---7-7-7-7-7-7-7-7-6-6-6-6-6-6-6-6---|  
oh, baby, baby, you're so sweet  

palm-mute the second verse  

verse 3  
-----------------------------------|  
-----------------------------------|  
-----------------------------------|  
---6-7-7-7-7-7-----6-7-7-7-7-7-7---|  
---6-7-7-7-7-7-----6-7-7-7-7-7-7---|  
---4h5-5-5-5-5-----4h5-5-5-5-5-5---|  
pm-----------------------------  

In the Fade  

Tuning - C F Eb Bb G C  

intro: (electric piano tabbed for guitar)  
---------------------|  
---------------------|  
---------------------|  
---17--19---22--19---|  
---------------------|  
---------------------|  

verse: (with delay)  
-------------------|  
-------16-----18---|  
---17------18------|  
-------------------|  
-------------------|  
-------------------|  

pre Chorus:  
-----------------------------------------------|  
-----------------------------------------------|  
---/10-10-10-10-10-10-10--13-13-13-------------|  
---/11-11-11-11-11-11-11--13-13-13--15-15-15---|  
---/11-11-11-11-11-11-11--11-11-11--15-15-15---|  
---/-9--9--9--9--9--9--9------------13-13-13---|  

Chorus: 1st, 2nd, 4th times  
--------------------------------------------------|  
--------------------------------------------------|  
----------13--17--13------------------------------|  
---13h15-------------15p13-15-15-------------15---|  
----------------------------------13--11--13------|  
--------------------------------------------------|  

live till you die  

Chorus: 3rd time  
---------------------------------------------------|  
----------------------16---------------------------|  
----------13--17--13-----17--17hbr-----------------|  
---13h15--------------------------------------15---|  
-----------------------------------13--11--13------|  
---------------------------------------------------|  

intro  
Cracks in a ceiling, crooked pictures in the hall  
Countin and breathin, I'm leaving here tomorrow  

verse 1  
They don't know, I'd never do you any good  
Laughin is easy, I would if I could  
pre Chorus  
Ain't gonna run  
Just live till you die, wanna drown  
With nowhere to fall into the arms of someone  
There's nothing to save and I know?  
You live till you die  

Chorus  
Live till you die, I know  
verse  
Loosing feelin, but I couldn't get the way  
Countin and breathin, disappearin in the fade  
They don't know, I'd never do you any good  
Stoppin and stayin, I would if I could  

pre Chorus  
Ain't gonna run  
Just live till you die, wanna drown  
With nowhere to fall into the arms of someone  
There's nothing to save I know  
You live till you die  

Chorus  
Live till you die, I know  

outro:  
--------------------------|  
--------------------------|  
---10-10-10-10-10-10-10---|  
---11-11-11-11-11-11-11---|  
---11-11-11-11-11-11-11---|  
----9--9--9--9--9--9--9---|  

end rhythm:  
-----------------|  
-----------------|  
---7-7-7-7-7-7---|  
---7-7-7-7-7-7---|  
---5-5-5-5-5-5---|  
-----------------|  

end lead:  
------------------|  
---15---13---15---|  
------------------|  
------------------|  
------------------|  
------------------|  
nicotine valium vicadan marijuana ecstacy and alcohol  

Tension Head  

Tuning - C F Bb Eb G C  

intro:  
---------------------|  
---------------------|  
---------------------|  
---------------------|  
-----7-6---5---------|  
---0-----7---6-0-5---|  

riff 1:  
---------------------------------------------------------------------------|  
---------------------------------------------------------------------------|  
---12-12-12-12----12-12-12-12----12-12-12-12----12-12-12-12--12-14-15-17---|  
---12-12-12-12----12-12-12-12----12-12-12-12----12-12-12-12--12-14-15-17---|  
---10-10-10-10--0-10-10-10-10--0-10-10-10-10--0-10-10-10-10--10-12-13-15---|  
---------------------------------------------------------------------------|  

riff 2:  
---------------------------------------------------------------------------|  
---------------------------------------------------------------------------|  
-----12-12-12-12----12-12-12-12----9----12-12-12-12----12-12-12-14-15-17---|  
-----12-12-12-12----12-12-12-12----9----12-12-12-12----12-12-12-14-15-17---|  
---0-10-10-10-10--0-10-10-10-10--0-7--0-10-10-10-10--0-10-10-10-12-13-15---|  
---------------------------------------------------------------------------|  

pre|-Chorus riff:  
-----------------------------------------------------------|  
-----------------------------------------------------------|  
---12-12-12-9--12-12-12-9--12-12-12-9--12-12-12/14-15-17---|  
---12-12-12-9--12-12-12-9--12-12-12-9--12-12-12/14-15-17---|  
---10-10-10-7--10-10-10-7--10-10-10-7--10-10-10/12-13-15---|  
-----------------------------------------------------------|  

Chorus: guitar 1 (right channel)  
-------------------------------------------------------------------------------|  
--17p15----------------17p15------------17p5---------------17p15-----------17--|  
--------15----17b--15--------15----17b-------15----17b--15-------15----17b-----|  
-----------14-------------------14--------------14------------------14---------|  
-------------------------------------------------------------------------------|  
-------------------------------------------------------------------------------| 

Chorus: guitar 2 (left channel)  
----------------------------------|  
----------------------------------|  
----------------------------------|  
------------9--8--------5--9--8---|  
-----6-7-6--9--8----6-7----9--8---|  
---0--------7--6--0--------7--6---|  

bridge:  
-----------------------------------------------------------------------|  
-----------------------------------------------------------------------|  
-----------------------------------------------------------------------|  
-----------------------------------------------------------------------|  
---6h7-7-6h7-7-6h7-----------------------------------------------------|  
-------------------2h3-3-2h3-3-2h3--4h5-5-4h5-5-4h5--2h3-3-2h3-3-2h3---|  

bridge lead:  
-----------------------------------------|  
---17-------17----------------17---------|  
------19-------19-19p17-19p17------------|  
---------17----------------------15-17---|  
-----------------------------------------|  
-----------------------------------------|  

intro riff 1x  

riff 1 1x  

riff 2 1x  

riff 1 2x  

riff 2 1x  

riff 1 1x  

riff 1 variation 1:  
-----------------------|  
-----------------------|  
---11-11-11-12-12-12---|  
---11-11-11-12-12-12---|  
----9--9--9-10-10-10---|  
-----------------------|  

riff 1 variation 2 (at the end of the riff):  
-----------------|  
-----------------|  
-----------------|  
-----------------|  
---10-12-13-12---|  
-----------------|  

riff 2 variation 1:  
----------------------------------|  
----------------------------------|  
----------------------------------|  
----------------------------------|  
--0-10-10-10--10-10h12p10-10--7---|  
----------------------------------|  

pre|-Chorus 2 lead:  
-------------------------------------------|  
--------------------------------------17---|  
---15---12---15---12---18---15---18--------|  
-------------------------------------------|  
-------------------------------------------|  
-------------------------------------------|  

riff 1 w/variation 1:  
Everyday I wake up feeling this way  

riff 1 w/variation 2:  
I take it downtown with all the action going down  

pre|-Chorus riff 2x:  
Stike your match, strike your match, cook it up  

Chorus:  
(My life) I'm feeling so sick  
(Your life) I feel so fucking sick (My life)  
(Your life)  

riff 1:  
On the bathroom floor  

riff 1 w/variation 2:  
Try to get out and get right  

riff 2 w/variation 1:  
Hustling little girls  

riff 2:  
Machine little boys  
Yeah  

pre|-Chorus riff and pc lead:  
Gotta get out, gotta get out and get right  
Gotta get out, I gotta get out no more  
No more, no more  

Chorus:  
(My life) I'm feeling so sick  
(Your life) I'm feeling so sick  
On the bathroom floor (My life)  
I'm feeling so sick (Your life)  
No more  

bridge  

intro riff 1x  

lead:  
-----------------------------------|  
------------------------------17---|  
---12--15--12--15--15--18--15------|  
-----------------------------------|  
-----------------------------------|  
-----------------------------------|  

riff 1 2x:  
Yeah!  
(High life, low life)  

pre|-Chorus riff 2x:  
(High life, low life, high life, low life)  

Chorus:  
(My life) I'm feeling so sick  
(Your life) I feel so sick  
No more  

Lightning Song  

Tuning - C F Bb Eb G C  

main riff  
---------------------------------------------------------|  
---------------------------------------------------------|  
---------------------------------------------------------|  
---8-10-11-13-15--16-15-13-10-10--8-10-11-13-15--8-6-8---|  
---------------------------------------------------------|  
---------------------------------------------------------|  

end riff (played after the pause)  
---------------------------|  
---------------------------|  
---------------------------|  
---16-15-13-15--13-11-10---|  
---------------------------|  
---------------------------|  

Notes: there's probably more to it than that, but the guitar is hard to   
hear;  
this song is played on a 12-string guitar; piano tabs to come  


I Think I Lost My Headache  

Tuning - C F Bb Eb G C  

intro/outro:  
---------------------------------------|  
---------------------------------------|  
---------------------------------------|  
------13--11--------11--10-------------|  
---12--------12--10--------12-----12---|  
-------------------------------13------|  

verse rhythm: end on:  
-----------------------------|--------|  
-----------------------------|--------|  
-----------------------------|---15---|  
---7--7-7--7-7--8-8--11-11---|---15---|  
---7--7-7--7-7--8-8--11-11---|---13---|  
---5--5-5--5-5--6-6---9--9---|--------|  

verse lead 1:  
-----------------|  
---14----fbr17---|  
-----------------|  
-----------------|  
-----------------|  
-----------------|  

fill 1:  
-----------------|  
-----------------|  
-----------------|  
-----------------|  
---4-5-4-----4---|  
---------7-6-----|  

fill 2:  
-----------------|  
-----------------|  
-----------------|  
-----------------|  
---4-5-----4-5---|  
-------7-6-------|  

Chorus:  
------------------------------------|--------|  
------------------------------------|--------|  
--------14------------13-------10---|---15---|  
-----14----14------------13---------|---15---|  
---12----------12--11--------8------|---13---|  
------------------------------------|--------|  

verse:  
You know why  
They called and just let it ring  
No reply  

fill 1  

verse:  
The door is open I swear  
Ain't no use in pickin up  
You know why  

Chorus:  
It's all my head I know  
So they tell me so  
Until my head explodes  
Into my head it goes  

verse riff 2x  

fill 2  

verse:  
Tastes so good  
Oh, but I knew it would  
Tastes so good  

fill 1  

verse:  
Burn like a match house  
Medicate just to make you soft  
Love is blind  

fill 1  

verse:  
Catch and release me  
What the hell were they thinking of  
You know why  

Chorus:  
It's all my head I know  
So they tell me so  
Until my head explodes  
Into my head it goes  

Play the outro until people start throwing things at you 
		  

Full key step upFull key step up
Half key step upHalf key step up
Half key step downHalf key step down
Full key step downFull key step down
hide glossary

See also:

tabs Yes - Roundabout tabs Queen - we will rock you (solo) tabs Status Quo - Whatever you want tabs Eric Clapton - Tears In Heaven (ver. 3) tabs The Beatles - Blackbird tabs Billy Idol - White Wedding
e-chords

Other versions:

tabs Queens Of The Stone Age - Rated R
auto scroll beats size up size down change color hide chords drawings
tab show chords e-chords YouTube Clip e-chords hide all tabs e-chords go to top tab

share