Queens Of The Stone Age

Precious and Grace

Queens Of The Stone Age

tabs Beginner beginner

by  NICK D

save to print version add songbook text version e-mail correct tuner
chordsukulelecavacokeyboardtabbassdrumsharmonicaflute Guitar Pro
close

there isn't a video lesson for this song

chords

Precious and Grace

	  		Intro:  
Guitar I 
|-------------------------| 
|-------------------------| 
|-------------------------| 
|-------------------------| 
|-------------------------| 
|-1h3--1h3-1/6-6-6-6-3-1--| 4x  
Guitar II 
|---------------------| 
|---------------------| 
|---------------------| 
|--------7/8~~~~~~~~--| 
|--------7/8~~~~~~~~--| 
|--------5/6~~~~~~~~--| 4x 
 
Verse 
   
 Ridin' Top from Floodway on a Friday Night------ 
 The Landscape's a Fine and Natural Sight-------- 
|--------------------------------------------------| 
|--------------------------------------------------| 
|--------------------------------------------------| 
|--------------------------------------------------| 
|--------------------------------------------------| 
|-1h3--1h3-1/6-6-6-6-3-1--1h3--1h3--1/6-6-6-6-3-1--|  
 
|----------------------------------------------| 
|----------------------------------------------| 
|----------------------------------------------| 
|--------7/8~~~~~~~~--------------7/8~~~~~~~~--| 
|--------7/8~~~~~~~~--------------7/8~~~~~~~~--| 
|--------5/6~~~~~~~~--------------5/6~~~~~~~~--| 
 
 Just Cruisin' Slow Through the Dark of Night---- 
|--------------------------------------------------| 
|--------------------------------------------------| 
|--------------------------------------------------| 
|--------------------------------------------------| 
|-1h3--1h3-1/6-6-6-6-3-1--1h3--1h3--1/6-6-6-6-3-1--| 
|--------------------------------------------------| 
 
|---------------------------------------------| 
|---------------------------------------------| 
|--------7/8~~~~~~~~--------------7/8~~~~~~~--| 
|--------7/8~~~~~~~~--------------7/8~~~~~~~--| 
|--------5/6~~~~~~~~--------------5/8~~~~~~~--| 
|---------------------------------------------| 
 
Chorus 
Guitar I&II                     
  
 With Precious and Grace Everything's--- Alright 
|----------------------------------------------------| 
|----------------------------------------------------| 
|----------------------------------------------------| 
|--7-7-7-7-7-7-7-7-7-7-7-7-7-------------------------| 
|-5-5-5-5-5-5-5-5-5-5-5-5-5--------------------------| 
|----------------------------1h3--1h3-1/6-6-6-6-3-1--| 
 
                                      Guitar II 
                                    |----------------| 
                                    |----------------| 
                                    |----------------| 
                                    |-7/8~~~~~~~~----| 
                                    |-7/8~~~~~~~~----| 
                                    |-5/6~~~~~~~~----| 
Guitar I 
|-------------------------| 
|-------------------------| 
|-------------------------| 
|-------------------------| 
|-------------------------| 
|-1h3--1h3-1/6-6-6-6-3-1--| 
 
Guitar II 
|---------------------| 
|---------------------| 
|---------------------| 
|--------7/8~~~~~~~~--| 
|--------7/8~~~~~~~~--| 
|--------5/6~~~~~~~~--| 
 
 
Verse II 
 
 Good God Almighty We Was Goin' Down Slow-------- 
 Yeah---, If We Knew Just Where We Had to Go-- 
|--------------------------------------------------| 
|--------------------------------------------------| 
|--------------------------------------------------| 
|--------------------------------------------------| 
|--------------------------------------------------| 
|-1h3--1h3-1/6-6-6-6-3-1--1h3--1h3--1/6-6-6-6-3-1--|  
 
|----------------------------------------------| 
|----------------------------------------------| 
|----------------------------------------------| 
|--------7/8~~~~~~~~--------------7/8~~~~~~~~--| 
|--------7/8~~~~~~~~--------------7/8~~~~~~~~--| 
|--------5/6~~~~~~~~--------------5/6~~~~~~~~--| 
 
 Cryin-- Just a Flyin---- Down a Put Out Road----- 
|--------------------------------------------------| 
|--------------------------------------------------| 
|--------------------------------------------------| 
|--------------------------------------------------| 
|-1h3--1h3-1/6-6-6-6-3-1--1h3--1h3--1/6-6-6-6-3-1--| 
|--------------------------------------------------| 
 
|---------------------------------------------| 
|---------------------------------------------| 
|--------7/8~~~~~~~~--------------7/8~~~~~~~--| 
|--------7/8~~~~~~~~--------------7/8~~~~~~~--| 
|--------5/6~~~~~~~~--------------5/6~~~~~~~--| 
|---------------------------------------------| 
 
Chorus II 
 
  With Precious and Grace in My Flathead-- Ford 
|----------------------------------------------------| 
|----------------------------------------------------| 
|----------------------------------------------------| 
|--7-7-7-7-7-7-7-7-7-7-7-7-7-------------------------| 
|-5-5-5-5-5-5-5-5-5-5-5-5-5--------------------------| 
|----------------------------1h3--1h3-1/6-6-6-6-3-1--| 
 
                                      Guitar II 
                                    |----------------| 
                                    |----------------| 
                                    |----------------| 
                                    |-7/8~~~~~~~~----| 
                                    |-7/8~~~~~~~~----| 
                                    |-5/6~~~~~~~~----| 
Guitar I 
|-------------------------| 
|-------------------------| 
|-------------------------| 
|-------------------------| 
|-------------------------| 
|-1h3--1h3-1/6-6-6-6-3-1--| 
 
Guitar II 
|---------------------| 
|---------------------| 
|---------------------| 
|--------7/8~~~~~~~~--| 
|--------7/8~~~~~~~~--| 
|--------5/6~~~~~~~~--| 
 
Interlude  
 Both Guitars 
|---------------------------------------| 
|---------------------------------------| 
|---------------------------------------| 
|-5-4-3-5-4-3-5-4-3-5-4-3-5-4-3-5-4-3~--| 
|---------------------------------------| 
|---------------------------------------| 2x 
  
 Both Guitars 
|-------------------------------------------------------------------------| 
|-------------------------------------------------------------------------| 
|-------------------------------------------------------------------------| 
|-------------------------------------------------------------------------| 
|-------------------------------------------------------------------------| 
|-0h1~~~~~~~~~------0h1~~~~~~~~~------0h1~~~~~~~~~------0h1~~~~~~~~~------| 
 
 Guitar I 
|------------------------------------------------------------------------| 
|------------------------------------------------------------------------| 
|-------------------------------------------------------------12---------| 
|-13v-12-12p10-12h13v-12-12p10-12h13v-12-12p10-12h13v-12-12p10--13-12-10-| 
|------------------------------------------------------------------------| 
|------------------------------------------------------------------------| 
 
|-------------------------------------------------------------------| 
|-------------------------------------------------------------------| 
|------------------------------12------12-------12------------------| 
|-13v-12-12p10-12h13v-12-12p10---13p12----13p12----13p12---8-10-13--| 
|-------------------------------------------------------------------| 
|-------------------------------------------------------------------| 
 
 Guitar II 
|-------------------------------------------------------------------| 
|-------------------------------------------------------------------| 
|-------------------------------------------------------------------| 
|-------------------------------------------------------------------| 
|-1h3-------------1h3-------------1h3-------------1h3---------------| 
|-------------------------------------------------------------------| 2x 
 
 Guitar I 
|---------------------------------------------------| 
|---------------------------------------------------| 
|---------------------------------------------------| 
|-12v-10-10p8-10h12v-10-10p8-10h12v-10-10p8-10h12v--| 
|---------------------------------------------------| 
|---------------------------------------------------| 
 
 Guitar II 
|-----------------------------------------------------------| 
|-----------------------------------------------------------| 
|-----------------------------------------------------------| 
|-----------------------------------------------------------| 
|-0h1------------0h1------------0h1------------0h1----------| 
|-----------------------------------------------------------| 
 
Guitar I 
 
|-------------------------------------------------| 
|-----/13v~-------13-11----11---------------------| 
|-----------12h15-------12----10-12p10/8-8v-------| 
|-13v---------------------------------------10~~--| 
|-------------------------------------------------| 
|-------------------------------------------------| 
 
Guitar II 
|-------------------------------------------------| 
|-------------------------------------------------| 
|-------------------------------------------------| 
|-------------------------------------------------| 
|-1h3---------1h3---------1h3---------1h3---------| 
|-------------------------------------------------| 
 
Guitar I 
|------------------| 
|------------------| 
|------------------| 
|-12---10---8---7--| 
|------------------| 
|------------------| 2x 
 
Guitar II 
|---------------| 
|---------------| 
|---------------| 
|---------------| 
|-5---3---1---0-| 
|---------------| 2x 
 
Verse III 
 
 So If You're Out Rollin' Late Some Night------- 
 Yeah, And You Need Some of That Natural Delight (talkin to you brotha!) 
|--------------------------------------------------| 
|--------------------------------------------------| 
|--------------------------------------------------| 
|--------------------------------------------------| 
|--------------------------------------------------| 
|-1h3--1h3-1/6-6-6-6-3-1--1h3--1h3--1/6-6-6-6-3-1--|  
 
|----------------------------------------------| 
|----------------------------------------------| 
|----------------------------------------------| 
|--------7/8~~~~~~~~--------------7/8~~~~~~~~--| 
|--------7/8~~~~~~~~--------------7/8~~~~~~~~--| 
|--------5/6~~~~~~~~--------------5/6~~~~~~~~--| 
 
 I Know Somebodies, They're Just Out of Sight---- 
|--------------------------------------------------| 
|--------------------------------------------------| 
|--------------------------------------------------| 
|--------------------------------------------------| 
|-1h3--1h3-1/6-6-6-6-3-1--1h3--1h3--1/6-6-6-6-3-1--| 
|--------------------------------------------------| 
 
|---------------------------------------------| 
|---------------------------------------------| 
|--------7/8~~~~~~~~--------------7/8~~~~~~~--| 
|--------7/8~~~~~~~~--------------7/8~~~~~~~--| 
|--------5/6~~~~~~~~--------------5/8~~~~~~~--| 
|---------------------------------------------| 
 
Chorus III 
 
 Get With Precious and Grace They Gonna Treat You Right  
|--------------------------------------------------------| 
|--------------------------------------------------------| 
|--------------------------------------------------------| 
|--7-7-7-7-7-7-7-7-7-7-7-7-7-7-7-7-7-7-7-7-7-7-7-7-7-7-7-| 
|-5-5-5-5-5-5-5-5-5-5-5-5-5-5-5-5-5-5-5-5-5-5-5-5-5-5-5--| 
|--------------------------------------------------------| 
 
Solo: 
 
Rhythm 
|----------------------------------| 
|----------------------------------| 
|----------------------------------| 
|----------------------------------| 
|----------------------------------| (this is Guitar II's rhythm, guitar I's 
|-1h3-3-3-1h3-3-3-1h3-3-3-3-3-3-3--|  rhythm is an octive higher) 
 
Lead: Guitar I (Guitar II playing rhythm) 
|-----------------------------------------------| 
|-----------------------------------------------| 
|-10h12v^~--10h12-----12------------------------| 
|----------------12~----10^-----------10--------| 
|--------------------------13-10-13-13--13-10~--| 
|-----------------------------------------------| 
 
|-------------------------------------------------| 
|-------------------------------------------------| 
|-------------------------------------------------| 
|-8-----------------------------------------------| 
|--10-8---------10(h)-------10(h)^-10(h)----------| 
|------10-8-6-8-------6-8p6--------------8-6-3^~--| 
 
|--------------------------------------------------------------------| 
|--------------------------------------------------------------------| 
|------------------------12(h)^-----------------12(h)^---------------| 
|-(h)/10^-10^-10(h)^-10^-------12(h)^-10^-12(h)^------12(h)^-12-10---| 
|-----------------------------------------------------------------10-| 
|--------------------------------------------------------------------| 
 
|------------------------------------------------------------------------| 
|--*tremlo picking*------------------------------------------------------| 
|----10--10--10--10-------------10--10--10--10-------------10-12p10-12^--| 
|-/12--12--12--12--10\8/10^--/12--12--12--12--10\8/10^(11)---------------| 
|------------------------------------------------------------------------| 
|------------------------------------------------------------------------| 
 
Lead: Guitar II (Guitar I plays rhythm) 
|-15~~--17^(18)~-15~~~~~~---------------| 
|-----------------------13^(14)-11------| 
|----------------------------------12~--| 
|---------------------------------------| 
|---------------------------------------| 
|---------------------------------------| 
 
|--------------------------------------------15^-----------13^--------------| 
|------12v-13^(14)-11-11-13p11-11-11-13p11-11---11-13p11-11---13p11-15^(16)-| 
|-10h12---------------------------------------------------------------------| 
|---------------------------------------------------------------------------| 
|---------------------------------------------------------------------------| 
|---------------------------------------------------------------------------| 
 
|---------------------| 
|-11------------------| 
|---12-10-8-----------| 
|----------10-8-------| 
|--------------10^^~--| 
|---------------------| 
 
Guitar I  
|---------------------------------------------------------------------------| 
|------------------------------------11-13^-13^-13^-13^-13^~-13^-11-13-11---| 
|-12~-10-12---10-12--10-12-12^-12--12------------------------------------12-| 
|-----------12-----12-------------------------------------------------------| 
|---------------------------------------------------------------------------| 
|---------------------------------------------------------------------------| 
 
|--------------------------------------------------------------| 
|---------------------------11^-11^----------------------------| 
|-10h12----10v~-12--12-12-12--------12--10v-12-12-12--12-12~~--| 
|-------12-----------------------------------------------------| 
|--------------------------------------------------------------| 
|--------------------------------------------------------------| 
 
Guitar II  
|--------------------------------10-------------------------------------| 
|----11-13^~~-13-11--------11-13----13-11--------------11h13p11---15^~--| 
|-12----------------12--12---------------12-10p9--9-12---------12-------| 
|-----------------------------------------------12----------------------| 
|-----------------------------------------------------------------------| 
|-----------------------------------------------------------------------| 
 
|-------------------------------------------------------14^(15)------| 
|-15-13-11----11/18^v~--13-11-------------------11h13p11-------13-11-| 
|----------12-----------------10~/12^12^~~-10-12---------------------| 
|--------------------------------------------------------------------| 
|--------------------------------------------------------------------| 
|--------------------------------------------------------------------| 
 
|----14^(15)-14^-----------| 
|-11-------------13-11v~~--| 
|--------------------------| 
|--------------------------| 
|--------------------------| 
|--------------------------| 
 
Outro 
 
Guitar I 
|-----7---7---7----6---6---6----5---5----5---------------------------| 
|--------------------------------------------------------------------| 
|-//7~--7--/7---/6---6--/6---/5---5---/5-----------------------3~~~~-| 
|-------------------------------------------2~~~---------------5~~~~-| 
|-------------------------------------------2~~~---------------5~~~~-| 
|-------------------------------------------0~~~---------------3~~~~-| 
 
Guitar II 
|---/19~~~~-----/18~~~~~~~~~/17~~~~~~~~~~~~~13^(13/14/15)~------------| 
|--------------------------------------------------------------11^~~~-| 
|--------------------------------------------------------------12~~~~-| 
|--------------------------------------------------------------12~~~~-| 
|--------------------------------------------------------------10~~~~-| 
|---------------------------------------------------------------------| 
 
 

		  

See also:

tabs The Smiths - Heaven Knows I'm Miserable Now tabs Eagles - Hotel California tabs The Beatles - All My Loving tabs Deep Purple - Smoke On The Water (Easy Intro) tabs Dire Straits - Sultans of Swing tabs Santana - Maria Maria
e-chords

Other versions:

tabs Queens Of The Stone Age - Precious and Grace
auto scroll beats size up size down change color hide chords drawings
tab show chords e-chords YouTube Clip e-chords hide all tabs e-chords go to top tab

share