Queens Of The Stone Age

Mosquito's Song

Queens Of The Stone Age

tabs Beginner beginner

save to print version add songbook text version e-mail correct tuner
chordsukulelecavacokeyboardtabbassdrumsharmonicaflute Guitar Pro
close

there isn't a video lesson for this song

chords

Mosquito's Song

	  		 
Riff Intro: 
E||-----------------------------|---------------------------|| 
B||-----------------------------|---------------------------|| 
G||*--------0-------------------|--------------------------*|| 
D||*--2-----2----4h5-0h2--------|--------0h-1--------1h-2--*|| 
A||------2---------------0h2----|-----2--2--2--0--2--2--2---|| 
E||---0----------------------3--|--3------------------------|| 
 
 
Riff 1: 
----------------------------|--------------------------| 
----------------------------|--------------------------| 
--------0-------------------|--------------------------| 
--2-----2----4h5-0h2--------|--------0h-1--------1h-2--| 
-----2---------------0h2----|-----2--2--2--0--2--2--2--| 
--0----------------------3--|--3-----------------------| 
 
Riff 2: 
E||--0----0--0----0--0----|--0------------------------|-------0--0----0--0----| 
B||--2----2--2----2--2----|--0------------------------|-------0--0----0--0----| 
G||--2----2--2----2--2----|--0------------------------|--4----4--4----4--4----| 
D||--2----2--2----2--2----|--2-------4h5-0h2----------|--4----4--4----4--4----| 
A||--0----0--0----0--0----|--2----2----------0h2------|--2----2--2----2--2----| 
E||-----------------------|--0-------------------3----|-----------------------| 
 
--0----0--0----0--0----|--0----0--0----0--0----|--0----0--0----0--0----| 
--0----0--0----0--0----|--2----2--2----2--2----|--0----0--0----0--0----| 
--0----0--0----0--0----|--2----2--2----2--2----|--0----0--0----0--0----| 
--2----2--2----2--2----|--2----2--2----2--2----|--2----2--2----2--2----| 
--2----2--2----2--2----|--0----0--0----0--0----|--2----2--2----2--2----| 
--0----0--0----0--0----|-----------------------|--0----0--0----0--0----| 
 
 (Deixe Soar)                     
--0----------------|| 
--0----------------|| 
--4----------------|| 
--4----------------|| 
--2----------------|| 
-------------------|| 
 
 
Riff 3: 
 
Deixe soar cada nota e use um efeito limpo, ja que nesta parte eles fazem vários efeitos com pianos, etc, é mais ou menos assim: 
E||-------------------|------------------|-------------------| 
B||--5----------------|------------------|--8----------------| 
G||-------------------|------------------|-------------------| 
D||-------------------|------------------|-------------------| 
A||-------------------|------------------|-------------------| 
E||-------------------|------------------|-------------------| 
 
------------------|-------------------|------------------|--------------------| 
------------------|--7----------------|------------------|--10----------------| 
------------------|-------------------|------------------|--------------------| 
------------------|-------------------|------------------|--------------------| 
------------------|-------------------|------------------|--------------------| 
------------------|-------------------|------------------|--------------------| 
 
------------------|--------------------|------------------|--------------------| 
------------------|--13----------------|------------------|--15----------------| 
------------------|--------------------|------------------|--------------------| 
------------------|--------------------|------------------|--------------------| 
------------------|--------------------|------------------|--------------------| 
------------------|--------------------|------------------|--------------------| 
 
------------------|--------------------|------------------|--------------------| 
------------------|--14----------------|------------------|--17----------------| 
------------------|--------------------|------------------|--------------------| 
------------------|--------------------|------------------|--------------------| 
------------------|--------------------|------------------|--------------------| 
------------------|--------------------|------------------|--------------------| 
 
 
Riff 4(esse riff eh uma espécie de trompete, que é acompanhado pelo Riff 1): 
			(nesta parte entra o Riff 1) 
E||-------------------|---------------------|-----------------------| 
B||----------------5--|--5--------------5h7h|--8------7h5h0------5--| 
G||-------------------|---------------------|-----------------------| 
D||-------------------|---------------------|-----------------------| 
A||-------------------|---------------------|-----------------------| 
E||-------------------|---------------------|-----------------------| 
 
 
----****---- 
Música  
----****---- 
 
Riff Intro (2x) 
 
 
Riff 1(8x) 
I know, I know the sun is hot 
Mosquitos come suck your blood 
Leave you there all alone 
Just skin and bone 
When you walk among the trees 
Listening to the leaves 
The further I go the less I know 
The less I know 
 
 
Riff 2(1x) 
Where will you run? 
Where will you hide? 
Lullabies 
To paralyze 
 
 
Riff 1(2x) 
 
 
Riff 1(8x) 
Fat and soft, pink and weak 
Foot and thigh, tongue and cheek 
You know I'm told they swallow you whole 
Skin and bone 
Cutting boards and hanging hooks 
Bloody knives, cooking books 
Promising you won't feel a thing 
At all 
 
 
Riff 2(1x) 
Swallow and chew 
Eat you alive 
All of us food that hasn't died 
And the light says 
 
 
PASSAGEM: 
Riff 3(1x) 
 
Riff 4(4x) - Enquanto é tocado o Riff 1(4x) 
 
{PAUSA} 
 
Riff 4(12x) + RIff 1(12) 
 
 
Riff 1(8x) 
Somehow they pick and pluck 
Tenderize bone to dust 
The sweetest grease, finest meat you'll ever taste 
Taste, taste 
So you scream, whine, and yell 
Supple sounds of dinner bells 
We all will feed the worms and trees So don't be shy 
 
 
RIff 2(1x) 
Swallow and chew 
Eat you alive 
All of us food that hasn't died 
 
_______________________________________________________ 
Contribuição: Henrique Pontes([email protected]) 

		  

See also:

tabs Yes - Roundabout tabs Queen - we will rock you (solo) tabs Status Quo - Whatever you want tabs Eric Clapton - Tears In Heaven (ver. 3) tabs The Beatles - Blackbird tabs Billy Idol - White Wedding
e-chords

Other versions:

tabs Queens Of The Stone Age - Mosquito's Song
auto scroll beats size up size down change color hide chords drawings
tab show chords e-chords YouTube Clip e-chords hide all tabs e-chords go to top tab

share