Queens Of The Stone Age

Monsters In The Parasol

Queens Of The Stone Age

tabs Expert expert

save to print version add songbook text version e-mail correct tuner
chordsukulelecavacokeyboardtabbassdrumsharmonicaflute Guitar Pro
close

there isn't a video lesson for this song

chords

Monsters In The Parasol

	  		 
Riff 1: 
E||--------------------------|-------------------------|| 
B||--------------------------|-------------------------|| 
G||--------------------------|--------------------5----|| 
D||--7--7--7--7--7--7--7--7--|--7--7--7--7--7--7--5----|| 
A||--7--7--7--7--7--7--7--7--|--7--7--7--7--7--7--3----|| 
E||--5--5--5--5--5--5--5--5--|--5--5--5--5--5--5--3----|| 
 
 
RIff 2 (pode parecer igual ao Riff 1, mas não é!!!!):  
Obs: os *   *  sao para repetir o que esta dentro deles!!! 
	*   * 
E||---------------------------|--------------------------| 
B||---------------------------|--------------------------| 
G||*--------------------------|--------------------------| 
D||*--7--7--7--7--7--7--7--7--|--7--7--7--7--7--7--7--7--| 
A||---7--7--7--7--7--7--7--7--|--7--7--7--7--7--7--7--7--| 
E||---5--5--5--5--5--5--5--5--|--5--5--5--5--5--5--5--5--| 
 
--------------------------|--------------------------|| 
--------------------------|--------------------------|| 
--------------------------|--------------------5----*|| 
--7--7--7--7--7--7--7--7--|--7--7--7--7--7--7--5----*|| 
--7--7--7--7--7--7--7--7--|--7--7--7--7--7--7--3-----|| 
--5--5--5--5--5--5--5--5--|--5--5--5--5--5--5--3-----|| 
 
--------------------------|--------------------------| 
--------------------------|--------------------------| 
--------------------------|--------------------------| 
--7--7--7--7--7--7--7--7--|--7--7--7--7--7--7--7--7--| 
--7--7--7--7--7--7--7--7--|--7--7--7--7--7--7--7--7--| 
--5--5--5--5--5--5--5--5--|--5--5--5--5--5--5--5--5--| 
 
--------------------------|--------------------------| 
--------------------------|--------------------------| 
--------------------------|--------------------------| 
--5--5--5--5--5--5--5--5--|--5--5--5--5--5--5--5--5--| 
--5--5--5--5--5--5--5--5--|--5--5--5--5--5--5--5--5--| 
--3--3--3--3--3--3--3--3--|--3--3--3--3--3--3--3--3--| 
 
 
Riff 3: 
|---------------------------|--------------------------|| 
|---------------------------|--------------------------|| 
|*--------------------------|--------------------5----*|| 
|*--7--7--7--7--7--7--7--7--|--7--7--7--7--7--7--5----*|| 
|---7--7--7--7--7--7--7--7--|--7--7--7--7--7--7--3-----|| 
|---5--5--5--5--5--5--5--5--|--5--5--5--5--5--5--3-----|| 
 
 
Riff 4: 
E||--------------------------|-------------------------| 
B||--------------------------|-------------------------| 
G||--------------------------|-------------------------| 
D||--7--7--7--7--7--7--7--7--|--7--7--7--7--7--7--7----| 
A||--7--7--7--7--7--7--7--7--|--7--7--7--7--7--7--7----| 
E||--5--5--5--5--5--5--5--5--|--5--5--5--5--5--5--5----| 
 
 
Riff 5: 
                           7x                            
|----------------------------||-------------------------|| 
|----------------------------||-------------------------|| 
|*--------------------------*||-------------------------|| 
|*--7--6--5-----5--6--7--6--*||--7--6--5-----5--6--7----|| 
|------------7---------------||-----------7-------------|| 
|----------------------------||-------------------------|| 
 
 
Riff 6: 
E||--------------------------|--------------------------| 
B||--------------------------|--------------------------| 
G||--8--8--8--8--8--8--8--8--|--5--5--5--5--5--5--5--5--| 
D||--8--8--8--8--8--8--8--8--|--5--5--5--5--5--5--5--5--| 
A||--6--6--6--6--6--6--6--6--|--3--3--3--3--3--3--3--3--| 
E||--6--6--6--6--6--6--6--6--|--3--3--3--3--3--3--3--3--| 
 
----------------------------------||------------------------------------|| 
----------------------------------||------------------------------------|| 
--10--10--10--10--10--10--10--10--||*--11--11--11--11--11--11--11--11--*|| 
--10--10--10--10--10--10--10--10--||*--11--11--11--11--11--11--11--11--*|| 
--8---8---8---8---8---8---8---8---||---9---9---9---9---9---9---9---9----|| 
--8---8---8---8---8---8---8---8---||---9---9---9---9---9---9---9---9----|| 
 
 
RIff 7: 
E||---------------------------|----------------------------------| 
B||---------------------------|----------------------------------| 
G||*--9--9--9--9--9--9--9--9--|----------------------------------| 
D||*--------------------------|--10--10--10--10--10--10--10--10--| 
A||---------------------------|----------------------------------| 
E||---------------------------|----------------------------------| 
                                                    4x 
--------------------------|---------------------------|| 
--------------------------|---------------------------|| 
-----------------8--7--8--|-----------------8--7--8--*|| 
--8--8--8--8--8-----------|--8--8--8--8--8-----------*|| 
--------------------------|---------------------------|| 
--------------------------|---------------------------|| 
 
 
Riff 8: 
                             6x                                   
E||----------------------------||--------------------------|-----|| 
B||----------------------------||--------------------------|-----|| 
G||*-----------------8--7--8--*||--------------------------|-----|| 
D||*--8--8--8--8--8-----------*||--7--6--5-----5--6--7--6--|--7--|| 
A||----------------------------||-----------7--------------|-----|| 
E||----------------------------||--------------------------|-----|| 
 
----****---- 
Música 
----****---- 
 
Intro: Riff 1(4x) 
 
 
Riff 2 + Riff 3 (1x) 
The walls are closing in again, oh well 
The walls are closing in again, oh well 
I seen some thing I thought I never saw 
Covered in hair 
 
 
Riff 2 + Riff 4(1x) 
Paul's dad is warped and bubbling, oh well 
Paul's dad is warped and bubbling, oh well 
And my mind is out here on another wave 
Covered in hair 
 
 
Riff 5(1x) 
She won't grow (7x) 
 
 
PASSAGEM: 
Riff 6(1x) 
 
 
Riff 7(1x) 
You've got a monster (distress) in your parasol (body out??) 
You've got a monster (dwarves, doors?) in your parasol (of course) 
You've got a monster (displeasure) in your parasol (I told you??) 
You've got a monster (?) in your parasol (xnay?) 
 
 
RIff 1(2x) 
 
 
Riff 2 + RIff 4(1x) 
Paul's sister is an alien, oh well 
Paul's sister is an alien, oh well 
I seen some things I thought I never saw 
Covered in hair 
 
 
Riff 5(1x) 
She won't grow (7x) 
 
 
PASSAGEM: 
Riff 6(1x) 
 
 
Riff 7(1x) 
You've got a monster (distress, my pest?) in your parasol 
You've got a monster (drawves) in your parasol (war horse) 
You've got a monster (displeasure) in your parasol (?) 
You've got a hole in you I never saw (??) 
 
 
Riff 8(1x) 
In your parasol, in your parasol 
 
_______________________________________________________ 
Contribuição: Henrique Pontes Brant([email protected]) 

		  

See also:

tabs Yes - Roundabout tabs Queen - we will rock you (solo) tabs Status Quo - Whatever you want tabs Eric Clapton - Tears In Heaven (ver. 3) tabs The Beatles - Blackbird tabs Billy Idol - White Wedding
e-chords

Other versions:

tabs Queens Of The Stone Age - Monsters In The Parasol
auto scroll beats size up size down change color hide chords drawings
tab show chords e-chords YouTube Clip e-chords hide all tabs e-chords go to top tab

share