save to print version add songbook text version e-mail correct tuner
chordsukulelecavacokeyboardtabbassdrumsharmonicaflute Guitar Pro
close

there isn't a video lesson for this song

chords

Kalopsia

	  		
G#          G        Cadd9   G# 
I've never lied to myself Tonight. 
G#           G 
Rose tinted eyes 
         Cadd9               G# 
Color my sorrows a shade of white... 
d|--------------|--------|-------------|-------------|------------------| 
A|--------------|--------|-------------|-------------|------------------| 
F|--------------|--------|-------------|-------------|------------------| 
C|--9---9-9-9-9-|-7-7777-|-10-10101010-|--9--9-9-9-9-|-10-10101010------| 
G|-10--10101010-|-9-9999-|-12-12121212-|-10-10101010-|-12-12121212-(x4)-| 
D|--0---0-0-0-0-|-0-0000-|--0--0-0-0-0-|--0--0-0-0-0-|--0--0-0-0-0------| 
       Bye          bye      black         bird            ooh...  
          
   (If you don't feel like stretching your fingers just strum an E)   
d|-----------------------------| 
A|-----------9129129129--------| 
F|-141414141-9-99-99-99--------| 
C|-222222222-9-99-99-99---(x2)-| 
G|-222222222-------------------| 
D|-000000000-------------------| 
See you real soon. 
Wave bye-bye... bye-bye 




E               Eb 
Oh, why you so sad? 
                A   C 
What have they done?! 
    E                    Eb     
Forget those mindless baboons, They're off 
         A   C 
playing god! 
E                 Eb                    A   C  
Copycats in cheap suits, all playing it safe 
      E                  Eb                  A  C 
While cannibals with bad news consume the parade 

Is it wonderful? 

d|-------------------------------------------------| 
A|-------------------------------------------------| 
F|-13-13131313-11-11111111-13-13131313-11-11111111-| 
C|--x--x-x-x-x--x--x-x-x-x--x--x-x-x-x--x--x-x-x-x-| 
G|-11-11111111--9--9-9-9-9-11-11111111--9--9-9-9-9-| 
D|--0--0-0-0-0--0--0-0-0-0--0--0-0-0-0--0--0-0-0-0-| 
                                                   |-x2 
d|-------------------------------------------------| 
A|-------------------------------------------------| 
F|-11-11111111-9-9999-11-11111111-9-9999-----------| 
C|--x--x-x-x-x-x-xxxx--x--x-x-x-x-x-xxxx-----------| 
G|-10-10101010-7-7777--9--9-9-9-9-7-7777-----------| 
D|--0--0-0-0-0-0-0000--0--0-0-0-0-0-0000-----------| 

d|-----------------------------| 
A|-----------9129129129--------| 
F|-141414141-9-99-99-99--------| 
C|-222222222-9-99-99-99---(x2)-| 
G|-222222222-------------------| 
D|-000000000-------------------| 

G#            G 
Far, far from shore 
         C 
Bland of nightmares 
            G# 
Gone forevermore 
    G#            G 
And I... love you more 
     C            G# 
Than I... can control 
d|--------------|--------|-------------|-------------|------------------| 
A|--------------|--------|-------------|-------------|------------------| 
F|--------------|--------|-------------|-------------|------------------| 
C|--9---9-9-9-9-|-7-7777-|-10-10101010-|--9--9-9-9-9-|-10-10101010------| 
G|-10--10101010-|-9-9999-|-12-12121212-|-10-10101010-|-12-12121212-(x4)-| 
D|--0---0-0-0-0-|-0-0000-|--0--0-0-0-0-|--0--0-0-0-0-|--0--0-0-0-0------| 
        I         don't      e-            ven           try 
Why would I? 

E                Eb 
Oh, why the long face? 
                  A     C 
You've got it all wrong! 
    E                 Eb 
Forget the rat in the race 
                       A   C  
The chump chained them all 
E               Eb 
Fate favors the ones 
             A     C 
Who help themselves 
    E                          Eb 
The rest feel the sting of the lash 
        A        E   
As they run to hell 

Repeat E Eb A C until you feel like fading out 
		  

Full key step upFull key step up
Half key step upHalf key step up
Half key step downHalf key step down
Full key step downFull key step down
hide glossary

See also:

tabs Yes - Roundabout tabs Queen - we will rock you (solo) tabs Status Quo - Whatever you want tabs Eric Clapton - Tears In Heaven (ver. 3) tabs The Beatles - Blackbird tabs Billy Idol - White Wedding
e-chords

Other versions:

tabs Queens Of The Stone Age - Kalopsia
auto scroll beats size up size down change color hide chords drawings
tab show chords e-chords YouTube Clip e-chords hide all tabs e-chords go to top tab

share