Queens Of The Stone Age

I'm Gonna Leave You

Queens Of The Stone Age

tabs

save to print version add songbook text version e-mail correct tuner
chordsukulelecavacokeyboardtabbassdrumsharmonicaflute Guitar Pro
close

there isn't a video lesson for this song

chords

I'm Gonna Leave You

	  		 
Afinação Padrão 
 
 
----****---- 
Riffs 
----****---- 
 
Riff 1 
E||--------------------------|----------------------------------| 
B||--------------------------|----------------------------------| 
G||--8--8--8--8--8--8--8--8--|--11--11--11--11--11--11--11--11--| 
D||--9--9--9--9--9--9--9--9--|--12--12--12--12--12--12--12--12--| 
A||--9--9--9--9--9--9--9--9--|--12--12--12--12--12--12--12--12--| 
E||--7--7--7--7--7--7--7--7--|--10--10--10--10--10--10--10--10--| 
 
--------------------------|--------------------------| 
--------------------------|--------------------------| 
--8--8--8--8--8--8--8--8--|--7--7--7--7--7--7--7--7--| 
--9--9--9--9--9--9--9--9--|--8--8--8--8--8--8--8--8--| 
--9--9--9--9--9--9--9--9--|--8--8--8--8--8--8--8--8--| 
--7--7--7--7--7--7--7--7--|--6--6--6--6--6--6--6--6--| 
 
--------------------------|----------------------------------| 
--------------------------|----------------------------------| 
--8--8--8--8--8--8--8--8--|--11--11--11--11--11--11--11--11--| 
--9--9--9--9--9--9--9--9--|--12--12--12--12--12--12--12--12--| 
--9--9--9--9--9--9--9--9--|--12--12--12--12--12--12--12--12--| 
--7--7--7--7--7--7--7--7--|--10--10--10--10--10--10--10--10--| 
 
--------------------------|--------------------------| 
--------------------------|--------------------------| 
--8--8--8--8--8--8--8--8--|--8--8--8--8--8--8--8--8--| 
--9--9--9--9--9--9--9--9--|--9--9--9--9--9--9--9--9--| 
--9--9--9--9--9--9--9--9--|--9--9--9--9--9--9--9--9--| 
--7--7--7--7--7--7--7--7--|--7--7--7--7--7--7--7--7--| 
 
 
 
Riff 2 
--------------------------|--------------------------| 
--------------------------|--------------------------| 
--4--4--4--4--4--4--4--4--|--3--3--3--3--3--3--3--3--| 
--5--5--5--5--5--5--5--5--|--4--4--4--4--4--4--4--4--| 
--5--5--5--5--5--5--5--5--|--4--4--4--4--4--4--4--4--| 
--3--3--3--3--3--3--3--3--|--2--2--2--2--2--2--2--2--| 
 
--------------------------|--------------------------| 
--------------------------|--------------------------| 
--4--4--4--4--4--4--4--4--|--3--3--3--3--3--3--3--3--| 
--5--5--5--5--5--5--5--5--|--4--4--4--4--4--4--4--4--| 
--5--5--5--5--5--5--5--5--|--4--4--4--4--4--4--4--4--| 
--3--3--3--3--3--3--3--3--|--2--2--2--2--2--2--2--2--| 
 
--------------------------|--------------------------| 
--------------------------|--------------------------| 
--4--4--4--4--4--4--4--4--|--3--3--3--3--3--3--3--3--| 
--5--5--5--5--5--5--5--5--|--4--4--4--4--4--4--4--4--| 
--5--5--5--5--5--5--5--5--|--4--4--4--4--4--4--4--4--| 
--3--3--3--3--3--3--3--3--|--2--2--2--2--2--2--2--2--| 
 
--------------------------|--------------------------| 
--------------------------|--------------------------| 
--4--4--4--4--4--4--4--4--|--6--6--6--6--6--6--6--6--| 
--5--5--5--5--5--5--5--5--|--7--7--7--7--7--7--7--7--| 
--5--5--5--5--5--5--5--5--|--7--7--7--7--7--7--7--7--| 
--3--3--3--3--3--3--3--3--|--5--5--5--5--5--5--5--5--| 
 
 
 
Riff 3 (tocado junto com o riff 1, pela guitarra 2) 
E||--10----11--------------|-----------------------|------------------------| 
B||--------------10--------|-----------------------|------------------------| 
G||------------------------|--7--8--7--8-----------|------------------------| 
D||------------------------|--------------7--------|------------------------| 
A||------------------------|-----------------------|--5--6--5--6------------| 
E||------------------------|-----------------------|--------------5/-7------| 
 
----------------x-x-|--10----11--------------|---------------------x-x-| 
----------------x-x-|--------------10--------|---------------------x-x-| 
--------------------|------------------------|--7--8--7--8-------------| 
--------------------|------------------------|--------------7----------| 
--------------------|------------------------|-------------------------| 
--------------------|------------------------|-------------------------| 
                    
-----------------------|-----------------------| 
----------7---------7--|------7----------------| 
--10b--------8---------|--10-----8----------8/-| 
-----------------------|-----------------------| 
-----------------------|-----------------------| 
-----------------------|-----------------------| 
 
 
Riff 4 
|--------------------------|----------------------------------| 
|--------------------------|----------------------------------| 
|--8--8--8--8--8--8--8--8--|--11--11--11--11--11--11--11--11--| 
|--9--9--9--9--9--9--9--9--|--12--12--12--12--12--12--12--12--| 
|--9--9--9--9--9--9--9--9--|--12--12--12--12--12--12--12--12--| 
|--7--7--7--7--7--7--7--7--|--10--10--10--10--10--10--10--10--| 
 
--------------------------|--------------------------|| 
--------------------------|--------------------------|| 
--4--4--4--4--4--4--4--4--|--3--3--3--3--3--3--3--3--|| 
--5--5--5--5--5--5--5--5--|--4--4--4--4--4--4--4--4--|| 
--5--5--5--5--5--5--5--5--|--4--4--4--4--4--4--4--4--|| 
--3--3--3--3--3--3--3--3--|--2--2--2--2--2--2--2--2--|| 
 
 
Solo (Base Riff1) 
E||-----------------------|----------------------| 
B||-----------------------|----------------------| 
G||-----------------------|----------------------| 
D||-----------------------|----------------------| 
A||--------8r---8r---8r---|--8r---8r---8r---8r---| 
E||--7--7-----------------|----------------------| 
 
------------9--7---------------|-------------------------| 
------------------10--9--8--7--|-------------------------| 
-------------------------------|-------------------------| 
-------------------------------|-------------------------| 
------x--x---------------------|--5b---------------------| 
-------------------------------|-------7--5--0--7--7--6--| 
 
--------------------------|-------------------------|-------------------------|| 
--------------------------|-------------------------|-------------------------|| 
--------------------------|-------------------------|-------------------------|| 
--------------------------|-------------0-----------|-------------------------|| 
-----5--7--7--7--5-----5--|--5b----2-------2--2--0--|-----0--0--2--5b------5--|| 
--8-----------------8-----|-----0-------------------|--2----------------7-----|| 
 
----****---- 
Música 
----****---- 
 
Intro:  Riff 1 - Guitarra 1 
	Riff 3 - Guitarra 2 
 
 
 
Riff 1 
Wait by the phone 
Late alone 
He can't help you 
But I know I could 
 
Riff 2 
Free is too long 
You know this is wrong 
Everything scars the skin 
Push it in, break it off 
 
 
Riff 4(2x) 
I'm gonna leave 
I'm gonna leave you 
I'm gonna leave 
I'm gonna leave you 
 
 
Riff 1 
I gave it starts 
I stomped on your hearts 
This the is the end, 
No more pictures, we ain't friends 
 
Riff 2 
It's raining in my room 
There's blood in my spoon 
You're out of my highchair 
I'm out of your womb 
 
 
Riff 4(2x) 
I'm gonna leave 
I'm gonna leave you 
I'm gonna leave 
I'm gonna leave you 
 
Riff 4(2x) 
I'm gonna leave 
I'm gonna leave you 
I'm gonna leave 
I'm gonna leave you 
 
 
Solo - Guitarra 1 
Riff 1 - Guitarra 2 
 
 
Riff 2 
Free is too long 
You know this is wrong 
Everything scars the skin 
Push it in, push it in, break it off 
 
Riff 4(2x) 
I'm gonna leave 
I'm gonna leave you 
I'm gonna leave 
I'm gonna leave you 
 
Riff 4(2x) 
I'm gonna leave 
I'm gonna leave you 
I'm gonna leave 
I don't need you 
 
Final: B5 
 
 
___________________________________________________________ 
Correção: Henrique Pontes Brant ([email protected]) 

		  

Full key step upFull key step up
Half key step upHalf key step up
Half key step downHalf key step down
Full key step downFull key step down
hide glossary

See also:

tabs Yes - Roundabout tabs Queen - we will rock you (solo) tabs Status Quo - Whatever you want tabs Eric Clapton - Tears In Heaven (ver. 3) tabs The Beatles - Blackbird tabs Billy Idol - White Wedding
e-chords

Other versions:

tabs Queens Of The Stone Age - I'm Gonna Leave You
auto scroll beats size up size down change color hide chords drawings
tab show chords e-chords YouTube Clip e-chords hide all tabs e-chords go to top tab

share