Queens Of The Stone Age

first it giveth

Queens Of The Stone Age

tabs Intermediate intermediate

by  IVNA_CUNHA

save to print version add songbook text version e-mail correct tuner
chordsukulelecavacokeyboardtabbassdrumsharmonicaflute Guitar Pro
close

there isn't a video lesson for this song

chords

first it giveth

	  		INTRO 
começa com um baixo:  
 
(8x cada nota) 
e|-----------------| |-----------------| 
B|-----------------| |-----------------| 
G|-----------------| |-----------------| 
D|-----------------| |-----------------| 
A|--2--5-----------| |--2--5-----------| 
E|----------3--0---| |----------3--3---| 
 
entra a guita (8x cada acorde) 
e|------------------| |------------------| 
B|------------------| |------------------| 
G|--5---7-----------| |--5---7---9---9---| 
D|--x---x---5---0---| |--x---x---x---x---| 
A|--2---5---x---0---| |--2---5---7---7---| 
E|-----------3---0--| |------------------| 
 
 
 
VERSOS (em todos os acordes são tocados 8x) 
(I'm in you, you...) 
e|------------------| |-------------------| 
B|------------------| |-------------------| 
G|--5---7-----------| |--5---7---9---0----| 
D|--x---x---5---0---| |--x---x---x---0----| 
A|--2---5---x---0---| |--2---5---7---0----| 
E|----------3---0---| |-------------------|      
 
 
(you're so cruel, more then me..) 
e|------------------| |-------------------| 
B|------------------| |-------------------| 
G|--5---7-----------| |--5---7---0---0----| 
D|--x---x---5---0---| |--x---x---0---0----| 
A|--2---5---x---0---| |--2---5---0---0----|  
E|----------3---0---| |-------------------| 
 
 
(Loyal to only you...) 
e|-------------------||-------------------| 
B|-------------------||-------------------| 
G|--9---12---5---0---||--9---12---0---0---| 
D|--x---x----x---0---||--x---x----0---0---| 
A|--7---10---3---0---||--7---10---0---0---| 
E|-------------------||-------------------| 
 
(Iwant some...) 
Obs: nesse verso toca:  
                 8x os acordes 3 primeiros acordes, 
                 3x o da casa 13 
                 3x o da casa 15 
                 2x quando volta pra casa 13 
e|------------------------------||-----------------| 
B|------------------------------||-----------------| 
G|--9---12---14---15---17---15--||--9--12---0--0---| 
D|--x---x----x----x----x----x---||--x--x----0--0---| 
A|--7---10---12---13---15---13--||--7--10---0--0---| 
E|------------------------------||-----------------|	 
 
 
 
Refrão  
e|----|       |---|     |----------| 
B|----|       |---|     |----------| 
G|--5-|(16x)  |-7-|(8x) |----------|(4x cada acorde) 
D|--x-|       |-x-|     |--5---0---| 
A|--2-|       |-5-|     |--x---0---| 
E|----|       |---|     |--3---0---| 
 
 
Entra um violão e a guitarra (faz essa seqüência 2x) 
                B5 (8x)       D5 (4x)    
                G5 (8x)       E5 (4x) 
 
 
VERSOS 
O primeiro verso tem um violão dedilhando os acordes e a guitarra 
no fundo (só é ouvir q vc vai saber onde encaixar o solo): 
 
e|---------------------------------| 
B|------7------5~7----5------------|        
 
**************************************************** 
LETRA 
I'm in you 
You're in me 
I can't tell 
 
You're so cruel 
More than me 
It is true 
That's right 
 
Loyal to 
Only you 
Up your sleeve 
 
I want some (come on, take it) 
of all of you (it's yours) 
Trickin me 
 
First it giveth 
Then it taketh away 
 
I would beg 
I would plead 
I would shake 
 
On a hook 
Dangling 
By the way 
 
I'm so young 
And beautiful 
(That's right) 
(I'm slick) 
I'm no fool 
 
Time goes by 
Tables turn 
Now I know  
 
First it giveth 
Then it taketh away 
 
 
 
 
*Os versos seguem iguais a primeira parte. Depois  repete várias vezes o Refrão. 
 
 
 

		  

Full key step upFull key step up
Half key step upHalf key step up
Half key step downHalf key step down
Full key step downFull key step down
hide glossary

See also:

tabs The Smiths - Heaven Knows I'm Miserable Now tabs Eagles - Hotel California tabs The Beatles - All My Loving tabs Deep Purple - Smoke On The Water (Easy Intro) tabs Dire Straits - Sultans of Swing tabs Santana - Maria Maria
e-chords

Other versions:

tabs Queens Of The Stone Age - first it giveth
auto scroll beats size up size down change color hide chords drawings
tab show chords e-chords YouTube Clip e-chords hide all tabs e-chords go to top tab

share