Queens Of The Stone Age

Feel Good Hit Of The Summer

Queens Of The Stone Age

tabs

save to print version add songbook text version e-mail correct tuner
chordsukulelecavacokeyboardtabbassdrumsharmonicaflute Guitar Pro
close

there isn't a video lesson for this song

chords

Feel Good Hit Of The Summer

	  		 
Afinação Padrão 
 
----****---- 
Riffs 
----****---- 
 
Riff 1: 
E||------------------------|-----------------------|------------------------|----------|| 
B||------------------------|-----------------------|------------------------|----------|| 
G||------------------------|-----------------------|------------------------|----------|| 
D||--8--8--8----8--8----8--|----8--8----8--8--8----|--8--8--8----8--8----8--|-------8--|| 
A||--8--8--8----8--8----8--|----8--8----8--8--8----|--8--8--8----8--8----8--|----8--8--|| 
E||--6--6--6----6--6----6--|----6--6----6--6--6----|--6--6--6----6--6----6--|----0--6--|| 
 
 
Riff 2 (Tocar Muitas Vezes o Bb {688xxx} e, no final, fazer um bend no Eb {x688xx}) 
E||---------------------------|| 
B||---------------------------|| 
G||----------------------8b---|| 
D||--8--8--8--8--8--8----8b---|| 
A||--8--8--8--8--8--8----6b---|| 
E||--6--6--6--6--6--6----x----|| 
 
 
----****---- 
Música 
----****---- 
 
Intro: Riff 1(2x) 
 
 
Riff 2(varias vezes o Bb) 
Nicotine, valium, vicadin, marijuana, ecstasy, and alcohol... 
 
	    (Nessa hora faça o Bend do Eb) 
C-C-C-C-C-C Caine!!! 
 
 
------------------------------- 
 
É só isso a música toda =D 
 
------------------------------- 
 
_______________________________________________________ 
Contribuição: Henrique Pontes Brant([email protected]) 

		  

Full key step upFull key step up
Half key step upHalf key step up
Half key step downHalf key step down
Full key step downFull key step down
hide glossary

See also:

tabs Yes - Roundabout tabs Queen - we will rock you (solo) tabs Status Quo - Whatever you want tabs Eric Clapton - Tears In Heaven (ver. 3) tabs The Beatles - Blackbird tabs Billy Idol - White Wedding
e-chords

Other versions:

tabs Queens Of The Stone Age - Feel Good Hit Of The Summer
auto scroll beats size up size down change color hide chords drawings
tab show chords e-chords YouTube Clip e-chords hide all tabs e-chords go to top tab

share