Queens Of The Stone Age

3s And 7s

Queens Of The Stone Age

tabs Beginner beginner

by  HELENA_2892

save to print version add songbook text version e-mail correct tuner
chordsukulelecavacokeyboardtabbassdrumsharmonicaflute Guitar Pro
close

there isn't a video lesson for this song

chords

3s And 7s

	  		Intro {Rhythm guitar riff}: 

e|--------------------------------------------------------------------------| 
B|--------------------------------------------------------------------------| 
G|--------------------6-6---------------------------------------------------| 
D|-x-x-x-x--8-8--x-x--6-6--8-8--x-x--6-6--5--3--3---------------------------| 
A|-x-x-x-x--8-8--x-x--4-4--8-8--x-x--6-6--3--3--3---------------------------| 
E|-x-x-x-x--6-6--x-x-------6-6--x-x--4-4--3--1--1---------------------------| 

Intro {Lead guitar riff} 

e|--------------------------------------------------------------------------| 
B|--------------------------------------------------------------------------| 
G|-20fb--18-----------------------------------------------------------------| 
D|-----------20-------------------------------------------------------------| 
A|---------------18--18fb--18--18fb--16-------------------------------------| 
E|---------------------------------------18---------------------------------| 

For the verses, use the above riffs 

Chorus {Rhythm part} 

e|--------------------------------------------------------------------------| 
B|--------------------------------------------------------------------------| 
G|--------------------------------------------------------------------------| 
D|--2-2----4-4----6-6----2-2----2-2----4-4----6-6----6-6--------------------| 
A|--2-2----4-4----6-6----2-2----2-2----4-4----6-6----6-6--------------------| 
E|--0-0----2-2----4-4----0-0----0-0----2-2----4-4----4-4--------------------| 

Play x2 but before playing the solo play: 

e|--------------| 
B|--------------| 
G|--------------| 
D|--7--7--7--7--| 
A|--7--7--7--7--| 
E|--5--5--5--5--| 

Chorus {Lead part} 

e|----------------------------------------------|---------------------------| 
B|-----4-2--4-5--4-----------2---2--4--2--------|-----4-2--4-5--4-5---------| 
G|-4-3-------------4----4-3----4----------4--3--|-4-3----------------4-3----| 
D|----------------------------------------------|---------------------------| 
A|----------------------------------------------|---------------------------| 
E|----------------------------------------------|---------------------------| 

e|-------------------| 
B|-2---2--4--2-------| 
G|---4----------4--3-| 
D|-------------------| 
A|-------------------| 
E|-------------------| 

Solo after first Chorus: 

e|------------------------------------9-------------------------------------| 
B|-------------------------------6------------------------9-------10--------| 
G|-------------------------------8fb-----8fb--8-6--8p6----------------------| 
D|-------------------6--------7-------------------------8----8h10-----------| 
A|-6fb-4---6p4---4-----4----------------------------------------------------| 
E|-------6-----6---6------6h8-----------------------------------------------| 

Repeat verse and Chorus riffs 

After second Chorus, play: 

e|--------------------------------------------------------------------------| 
B|--------------------------------------------------------------------------| 
G|--------------------------------------------------------------------------| 
D|-3-3-3-3---6-6-6-6---5-5-5-5---8-8-8-8---7-7-7-7--10-10-10-10--11-11-10---| 
A|-3-3-3-3---6-6-6-6---5-5-5-5---8-8-8-8---7-7-7-7--10-10-10-10--11-11-10---| 
E|-1-1-1-1---4-4-4-4---3-3-3-3---6-6-6-6---5-5-5-5--8--8--8--8---9--9--8----| 

e|-------------------| 
B|-------------------| 
G|-------------------| 
D|-8-8---------------| 
A|-8-8---------------| 
E|-6-6---------------| Play section 4 times 

Lead up to bass interlude: 

e|--------------------------------------------------------------------------| 
B|--------------------------------------------------------------------------| 
G|-----------------------------------------6-6-6-6-8-10-10-10-10-10---------| 
D|-3-3-1------3--3-3-1-----3--3-3-1-----3-----------------------------------| 
A|-------4-4--3--------4-4-3--------4-4-3-----------------------------------| 
E|------------1------------1------------1-----------------------------------| 

There is a bass interlude, and then the main {and most awesome} solo: 

e|--------------------------------------------------------------------------| 
B|-11----14p11--14p11-----11h14p11------11--16fb-13--13hb-13-11h13----11----| 
G|-13fb----------------13-----------13-----------------------------13-------| 
D|--------------------------------------------------------------------------| 
A|--------------------------------------------------------------------------| 
E|--------------------------------------------------------------------------| 

e|--------------------------------------------------------------------------| 
B|-----------------------------10-------------------------------------------| 
G|-13fb-13---8--10-----8-------------10-10-10--8--11--10--------14----------| 
D|-----------------11-----8h10----------------------------11-13-------------| 
A|--------------------------------------------------------------------------| 
E|--------------------------------------------------------------------------| 

e|--------6-----------------------------------------------------------------| 
B|--------------------------------------------------------------------------| 
G|-6-8fb----8fb-8-6-6----6--------------------------------------------------| 
D|--------------------------------------------------------------------------| 
A|---------------------8----8--6-8---6fb-6-4-----6fb-6-4----6fb-6-4----4----| 
E|--------------------------------------------6-----------6---------6-------| 

e|--------------------------------------------------------------------------| 
B|----------------------------------------------------------6---------------| 
G|-----------------------------------------5---5h6p5p3h5------6-------------| 
D|---------------------6---------------3------------------------------------| 
A|-----7------4h6--6fb----4----4h6p4-----6---------------4------------------| 
E|-6h8----4h6---------------6--------6--------------------------------------| 

e|--------------------------------------------------------------------------| 
B|--------------------------------------6-----------------------------------| 
G|-8p6--8p6--8p6----8--5----5h6p5p3h5-----6---8p6--8p6--8-----5-------------| 
D|--------------------------------------------------------------------------| 
A|---------------8--------------------4--------------------8----------------| 
E|--------------------------------------------------------------------------| 
		  

See also:

tabs Blind Melon - No Rain tabs Billy Idol - White Wedding tabs Santana - Maria Maria tabs Heart - Barracuda tabs Eric Clapton - Hey, Hey tabs Deep Purple - Smoke On The Water (Easy Intro)
e-chords

Other versions:

tabs Queens Of The Stone Age - 3s And 7s tabs Guitar Hero - 3s And 7s
auto scroll beats size up size down change color hide chords drawings
tab show chords e-chords YouTube Clip e-chords hide all tabs e-chords go to top tab

share