Pvris

Only Love Live (acoustic)

Pvris

tabs

by  TARIKIKE

save to print version add songbook text version e-mail correct tuner
chordsukulelecavacokeyboardtabbassdrumsharmonicaflute Guitar Pro
close

there isn't a video lesson for this song

chords

Only Love Live (acoustic)

	  		

VERSES & Pre-Chorus 
e|---------------------------------------------------------------------------| 
B|--6----8----9----13--13----------------------------------------------------| 
G|---------------------------------------------------------------------------| 
D|---------------------------------------------------------------------------| 
A|--4----6----8----11--11----------------------------------------------------| 
E|---------------------------------------------------------------------------| 

Chorus: 
e|---------------------------------------------------------------------------| 
B|---------------------------------------------------------------------------| 
G|---------------------------------------------------------------------------| 
D|----2\4~---4-----6------6------8-------------------------------------------| 
A|---0------2-----4------4------6--------------------------------------------| 
E|--0------2-----4------4------6---------------------------------------------| 

Bridge: 
(Until "don't you give this up") 
e|---------------------------------------------------------------------------| 
B|--6----8----9----13--13----------------------------------------------------| 
G|---------------------------------------------------------------------------| 
D|---------------------------------------------------------------------------| 
A|--4----6----8----11--11----------------------------------------------------| 
E|---------------------------------------------------------------------------| 

("Before you came around") 
e|---------------------------------------------------------------------------| 
B|---------------------------------------------------------------------------| 
G|---------------------------------------------------------------------------| 
D|----2\4~---4-----6------6------8-------------------------------------------| 
A|---0------2-----4------4------6--------------------------------------------| 
E|--0------2-----4------4------6---------------------------------------------| 



************************************ 

| /   slide up 
| \   slide down 
| h   hammer-on 
| p   pull-off 
| ~   vibrato 
| +   harmonic 
| x   Mute note 
| b   Bend 
| pb  Pre-bend 
| br  Bend release 
| pbr Pre-bend release 
| brb Bend release bend 

************************************ 
		  

auto scroll beats size up size down change color hide chords drawings
tab show chords e-chords YouTube Clip e-chords hide all tabs e-chords go to top tab

share