Pvris

My House (Acoustic)

Pvris

tabs

by  ALYSLIMA

save to print version add songbook text version e-mail correct tuner
chordsukulelecavacokeyboardtabbassdrumsharmonicaflute Guitar Pro
close

there isn't a video lesson for this song

chords

My House (Acoustic)

	  		Song: "My House" (acoustic) by Pvris 
Album: White Noise (2014) 
Tuning: Drop C  

Taken from Journey's Live recording here: https://www.youtube.com/watch?v=JcXoFmyiGsI 
Watch the video for Lynn Gunn's strumming flourishes. 


Chorus:  
D|-7---7---7---7--7777--11---11---11---11--11111111--7---7---7---7--7777--5-5-5-5-5555---------------| 
A|-8---8---8---8--8888---8----8----8----8---8--8--8--8---8---8---8--8888--7-7-7-7-7777---------------| 
F|-9---9---9---9--9999---9----9----9----9---9--9--9--9---9---9---9--9999--7-7-7-7-7777---------------| 
C|---------------------------------------------------------------------------------------------------| 
G|---------------------------------------------------------------------------------------------------| 
C|---------------------------------------------------------------------------------------------------| 

D|-7---7---7---7--7777--11---11---11---11--11111111--7---7---7---7--7777--11---11---11---11--11111111| 
A|-8---8---8---8--8888---8----8----8----8---8--8--8--8---8---8---8--8888---8----8----8----8---8--8--8| 
F|-9---9---9---9--9999---9----9----9----9---9--9--9--9---9---9---9--9999---9----9----9----9---9--9--9| 
C|---------------------------------------------------------------------------------------------------| 
G|---------------------------------------------------------------------------------------------------| 
C|---------------------------------------------------------------------------------------------------| 

D|-7---7---7---7--7777--11---11---11---11--11111111--7---7---7---7--7777--5-5-5-5-5555---------------| 
A|-8---8---8---8--8888---8----8----8----8---8--8--8--8---8---8---8--8888--7-7-7-7-7777---------------| 
F|-9---9---9---9--9999---9----9----9----9---9--9--9--9---9---9---9--9999--7-7-7-7-7777---------------| 
C|---------------------------------------------------------------------------------------------------| 
G|---------------------------------------------------------------------------------------------------| 
C|---------------------------------------------------------------------------------------------------| 

D|-7---7---7---7--7777--11---11---11---11--11111111--7---7---7---7--7777-----------------------------| 
A|-8---8---8---8--8888---8----8----8----8---8--8--8--8---8---8---8--8888-----------------------------| 
F|-9---9---9---9--9999---9----9----9----9---9--9--9--9---9---9---9--9999-----------------------------| 
C|---------------------------------------------------------------------------------------------------| 
G|---------------------------------------------------------------------------------------------------| 
C|---------------------------------------------------------------------------------------------------| 

Bridge: 
D|-12---12---14---14---15---15---15---15-------------------------------------------------------------| 
A|---------------------------------------------------------------------------------------------------| 
F|---12---12---12---12---12---12---12---12-----------------------------------------------------------| 
C|---------------------------------------------------------------------------------------------------| 
G|---------------------------------------------------------------------------------------------------| 
C|---------------------------------------------------------------------------------------------------| 

D|-12---12---14---14---15---15---15~-----------------------------------------------------------------| 
A|---------------------------------------------------------------------------------------------------| 
F|---12---12---12---12---12---12---12----------------------------------------------------------------| 
C|---------------------------------------------------------------------------------------------------| 
G|---------------------------------------------------------------------------------------------------| 
C|---------------------------------------------------------------------------------------------------| 

Last Chorus/Outro:  
D|-7---7---7---7--7777--11---11---11---11--11111111--7---7---7---7--7777--5-5-5-5-5555---------------| 
A|-8---8---8---8--8888---8----8----8----8---8--8--8--8---8---8---8--8888--7-7-7-7-7777---------------| 
F|-9---9---9---9--9999---9----9----9----9---9--9--9--9---9---9---9--9999--7-7-7-7-7777---------------| 
C|---------------------------------------------------------------------------------------------------| 
G|---------------------------------------------------------------------------------------------------| 
C|---------------------------------------------------------------------------------------------------| 

D|-7---7---7---7--7777--11---11---11---11--11111111--7---7---7---7--7777--11---11---11---11--11111111| 
A|-8---8---8---8--8888---8----8----8----8---8--8--8--8---8---8---8--8888---8----8----8----8---8--8--8| 
F|-9---9---9---9--9999---9----9----9----9---9--9--9--9---9---9---9--9999---9----9----9----9---9--9--9| 
C|---------------------------------------------------------------------------------------------------| 
G|---------------------------------------------------------------------------------------------------| 
C|---------------------------------------------------------------------------------------------------| 

D|-7-7-7-7-7-7--7-7--11-11-11-11-11-11-11-11--11-11--7-7-7-7-7-7--7-7--5-5-5-5-5-5-5-5--5-5----------| 
A|-8-8-8-8-8-8--8-8---8--8--8--8--8--8--8--8---8--8--8-8-8-8-8-8--8-8--7-7-7-7-7-7-7-7--7-7----------| 
F|-9-9-9-9-9-9--9-9---9--9--9--9--9--9--9--9---9--9--9-9-9-9-9-9--9-9--7-7-7-7-7-7-7-7--7-7----------| 
C|---------------------------------------------------------------------------------------------------| 
G|---------------------------------------------------------------------------------------------------| 
C|---------------------------------------------------------------------------------------------------| 

D|-7-7-7-7-7-7--7-7--11-11-11-11-11-11-11-11--11-11--7-7-7-7-7-7~------------------------------------| 
A|-8-8-8-8-8-8--8-8---8--8--8--8--8--8--8--8---8--8--8-8-8-8-8-8~------------------------------------| 
F|-9-9-9-9-9-9--9-9---9--9--9--9--9--9--9--9---9--9--9-9-9-9-9-9~------------------------------------| 
C|---------------------------------------------------------------------------------------------------| 
G|---------------------------------------------------------------------------------------------------| 
C|---------------------------------------------------------------------------------------------------| 
		  

Full key step upFull key step up
Half key step upHalf key step up
Half key step downHalf key step down
Full key step downFull key step down
auto scroll beats size up size down change color hide chords drawings
tab show chords e-chords YouTube Clip e-chords hide all tabs e-chords go to top tab

share