Protomartyr

The Milk Drinkers

Protomartyr

tabs

by  AMAN_CLAUDINO

save to print version add songbook text version e-mail correct tuner
chordsukulelecavacokeyboardtabbassdrumsharmonicaflute Guitar Pro
close

there isn't a video lesson for this song

chords

The Milk Drinkers

	  		
e|---------------------------------------------------------------------------| 
B|--10-10-10-10-10h12-10-------10-10-10-10-10h12-10--------------------------| 
G|-----------------------11-----------------------11-9--9-9-9-9-9h11-9-------| 
D|--------------------------12-----------------------------------------12-9--| 
A|---------------------------------------------------------------------------| 
E|---------------------------------------------------------------------------| 

e|---------------------------------------------------------------------------| 
B|----------10-10------------------------------------------------------------| 
G|--9-9-9-9-------11-11------------------------------------------------------| 
D|---------------------------------------------------------------------------| 
A|---------------------------------------------------------------------------| 
E|---------------------------------------------------------------------------| 

e|---------------------------------------------------------------------------| 
B|---------------------------------------------------------------------------| 
G|--7--7-7--7-7-7--7--7-7--7-7-7--7--7-7--7-7-7--7--7-7--7-7-7---------------| 
D|--7--7-7--7-7-7--7--7-7--7-7-7--7--7-7--7-7-7--7--7-7--7-7-7---------------| 
A|--5--5-5--5-5-5--5--5-5--5-5-5--5--5-5--5-5-5--5--5-5--5-5-5---------------|  
E|---------------------------------------------------------------------------| 

what makes a kid run?  what makes a kid run? 

e|---------------------------------------------------------------------------| 
B|---------------------------------------------------------------------------| 
G|-----------------7--7-7--7-7-7-----------------7--7-7--7-7-7---------------| 
D|--7--7-7--7-7-7--7--7-7--7-7-7--7--7-7--7-7-7--7--7-7--7-7-7---------------| 
A|--7--7-7--7-7-7--5--5-5--5-5-5--7--7-7--7-7-7--5--5-5--5-5-5---------------|  
E|--5--5-5--5-5-5-----------------5--5-5--5-5-5------------------------------| 

too much clamor, kid's got no mother 

e|---------------------------------------------------------------------------| 
e|---------------------------------------------------------------------------| 
B|---------------------------------------------------------------------------| 
G|--7--7-7--7-7-7--7--7-7--7-7-7--7--7-7--7-7-7--7--7-7--7-7-7---------------| 
D|--7--7-7--7-7-7--7--7-7--7-7-7--7--7-7--7-7-7--7--7-7--7-7-7---------------| 
A|--5--5-5--5-5-5--5--5-5--5-5-5--5--5-5--5-5-5--5--5-5--5-5-5---------------|  
E|---------------------------------------------------------------------------| 

The milk drinkers, the milk drinkers 

e|---------------------------------------------------------------------------| 
B|---------------------------------------------------------------------------| 
G|-----------------7--7-7--7-7-7-----------------7--7-7--7-7-7---------------| 
D|--7--7-7--7-7-7--7--7-7--7-7-7--7--7-7--7-7-7--7--7-7--7-7-7---------------| 
A|--7--7-7--7-7-7--5--5-5--5-5-5--7--7-7--7-7-7--5--5-5--5-5-5---------------|  
E|--5--5-5--5-5-5-----------------5--5-5--5-5-5------------------------------| 

No one with sound mind to hide a body 

e|---------------------------------------------------------------------------| 
B|--10-10-10-10-10h12-10-------10-10-10-10-10h12-10--------------------------| 
G|-----------------------11-----------------------11-9--9-9-9-9-9h11-9-------| 
D|--------------------------12-----------------------------------------12-9--| 
A|---------------------------------------------------------------------------| 
E|---------------------------------------------------------------------------| 

e|---------------------------------------------------------------------------| 
B|----------10-10------------------------------------------------------------| 
G|--9-9-9-9-------11-11------------------------------------------------------| 
D|---------------------------------------------------------------------------| 
A|---------------------------------------------------------------------------| 
E|---------------------------------------------------------------------------| 

e|---------------------------------------------------------------------------| 
B|---------------------------------------------------------------------------| 
G|--7--7-7--7-7-7--7--7-7--7-7-7--7--7-7--7-7-7--7--7-7--7-7-7---------------| 
D|--7--7-7--7-7-7--7--7-7--7-7-7--7--7-7--7-7-7--7--7-7--7-7-7---------------| 
A|--5--5-5--5-5-5--5--5-5--5-5-5--5--5-5--5-5-5--5--5-5--5-5-5---------------|  
E|---------------------------------------------------------------------------| 

What makes a kid run, what makes a kid run 

e|---------------------------------------------------------------------------| 
B|---------------------------------------------------------------------------| 
G|-----------------7--7-7--7-7-7-----------------7--7-7--7-7-7---------------| 
D|--7--7-7--7-7-7--7--7-7--7-7-7--7--7-7--7-7-7--7--7-7--7-7-7---------------| 
A|--7--7-7--7-7-7--5--5-5--5-5-5--7--7-7--7-7-7--5--5-5--5-5-5---------------|  
E|--5--5-5--5-5-5-----------------5--5-5--5-5-5------------------------------| 

too much clamor, kid's got no mother 

e|---------------------------------------------------------------------------| 
B|---------------------------------------------------------------------------| 
G|--7--7-7--7-7-7--7--7-7--7-7-7--7--7-7--7-7-7--7--7-7--7-7-7---------------| 
D|--7--7-7--7-7-7--7--7-7--7-7-7--7--7-7--7-7-7--7--7-7--7-7-7---------------| 
A|--5--5-5--5-5-5--5--5-5--5-5-5--5--5-5--5-5-5--5--5-5--5-5-5---------------|  
E|---------------------------------------------------------------------------| 

the milk drinkers, the milk drinkers 

e|---------------------------------------------------------------------------| 
B|---------------------------------------------------------------------------| 
G|-----------------7--7-7--7-7-7-----------------7--7-7--7-7-7---------------| 
D|--7--7-7--7-7-7--7--7-7--7-7-7--7--7-7--7-7-7--7--7-7--7-7-7---------------| 
A|--7--7-7--7-7-7--5--5-5--5-5-5--7--7-7--7-7-7--5--5-5--5-5-5---------------|  
E|--5--5-5--5-5-5-----------------5--5-5--5-5-5------------------------------| 

No one with sound mind to hide a body 

his father collected beanie babies 

e|---------------------------------------------------------------------------| 
B|--10-10-10-10-10h12-10-------10-10-10-10-10h12-10--------------------------| 
G|-----------------------11-----------------------11-9--9-9-9-9-9h11-9-------| 
D|--------------------------12-----------------------------------------12-9--| 
A|---------------------------------------------------------------------------| 
E|---------------------------------------------------------------------------| 

e|---------------------------------------------------------------------------| 
B|----------10-10------------------------------------------------------------| 
G|--9-9-9-9-------11-11------------------------------------------------------| 
D|---------------------------------------------------------------------------| 
A|---------------------------------------------------------------------------| 
E|---------------------------------------------------------------------------| 

e|---------------------------------------------------------------------------| 
B|---------------------------------------------------------------------------| 
G|--7--7-7--7-7-7--7--7-7--7-7-7--7--7-7--7-7-7--7--7-7--7-7-7---------------| 
D|--7--7-7--7-7-7--7--7-7--7-7-7--7--7-7--7-7-7--7--7-7--7-7-7---------------| 
A|--5--5-5--5-5-5--5--5-5--5-5-5--5--5-5--5-5-5--5--5-5--5-5-5---------------|  
E|---------------------------------------------------------------------------| 

What makes a kid run, what makes a kid run 

e|---------------------------------------------------------------------------| 
B|---------------------------------------------------------------------------| 
G|-----------------7--7-7--7-7-7-----------------7--7-7--7-7-7---------------| 
D|--7--7-7--7-7-7--7--7-7--7-7-7--7--7-7--7-7-7--7--7-7--7-7-7---------------| 
A|--7--7-7--7-7-7--5--5-5--5-5-5--7--7-7--7-7-7--5--5-5--5-5-5---------------|  
E|--5--5-5--5-5-5-----------------5--5-5--5-5-5------------------------------| 

too much clamor, kid's got no mother 

e|---------------------------------------------------------------------------| 
B|---------------------------------------------------------------------------| 
G|--7--7-7--7-7-7--7--7-7--7-7-7--7--7-7--7-7-7--7--7-7--7-7-7---------------| 
D|--7--7-7--7-7-7--7--7-7--7-7-7--7--7-7--7-7-7--7--7-7--7-7-7---------------| 
A|--5--5-5--5-5-5--5--5-5--5-5-5--5--5-5--5-5-5--5--5-5--5-5-5---------------|  
E|---------------------------------------------------------------------------| 

the milk drinkers, the milk drinkers 

e|---------------------------------------------------------------------------| 
B|---------------------------------------------------------------------------| 
G|-----------------7--7-7--7-7-7-----------------7--7-7--7-7-7---------------| 
D|--7--7-7--7-7-7--7--7-7--7-7-7--7--7-7--7-7-7--7--7-7--7-7-7---------------| 
A|--7--7-7--7-7-7--5--5-5--5-5-5--7--7-7--7-7-7--5--5-5--5-5-5---------------|  
E|--5--5-5--5-5-5-----------------5--5-5--5-5-5------------------------------| 

No one with sound mind to hide a body 

e|---------------------------------------------------------------------------| 
B|--10-10-10-10-12-12--------10-10-10-10-12-12-------10-10-10-10-12-12-------| 
G|--------------------11-11--------------------11-11-------------------11-11-| 
D|---------------------------------------------------------------------------| 8x 
A|---------------------------------------------------------------------------| 
E|---------------------------------------------------------------------------| 

Why are they hiding where 
I'll never find it, I'll never find it 
This is a silent dream 
If you can't get here 
They will find it 
In the backyard, in the backyard 
They'll find the bodies, they'll find the bodies 
In the backyard 
		  

See also:

tabs Deep Purple - Sail Away tabs Deep Purple - Pictures of Home tabs Deep Purple - Lazy tabs Deep Purple - Highway Star tabs Deep Purple - Deep Purple - Smoke On The Water tabs Deep Purple - Smoke On The Water (Intro + solo 01)
e-chords

Other versions:

tabs Protomartyr - The Milk Drinkers
auto scroll beats size up size down change color hide chords drawings
tab show chords e-chords YouTube Clip e-chords hide all tabs e-chords go to top tab

share