Projota

Par Não Dizer Que Eu Não Falei Do Ódio

Projota

tabs

by  PAULLET3

save to print version add songbook text version e-mail correct tuner
chordsukulelecavacokeyboardtabbassdrumsharmonicaflute Guitar Pro
close

there isn't a video lesson for this song

chords

Par Não Dizer Que Eu Não Falei Do Ódio

	  		
e|---------7--5---------------------------------------| 
B|---2--4---------------------------------------------| 
G|----------------------------------------------------| 
D|----------------------------------------------------| 
A|----------------------------------------------------| 
E|----------------------------------------------------| 

e|---------7--5-----5-----5---------------------------| 
B|---2--4--------4-----4------------------------------| 
G|----------------------------------------------------| 
D|----------------------------------------------------| 
A|----------------------------------------------------| 
E|----------------------------------------------------| 
		  

See also:

tabs Planet Hemp - A Culpa É De Quem ? tabs Planet Hemp - Fazendo A Cabeça tabs O Rappa - Hey Joe tabs Realidade Cruel - Quem Sabe Um Dia tabs Rael da Rima - Ser Feliz tabs Marcelo D2 - 1967
e-chords

Other versions:

tabs Projota - Par Não Dizer Que Eu Não Falei Do Ódio
auto scroll beats size up size down change color hide chords drawings
tab show chords e-chords YouTube Clip e-chords hide all tabs e-chords go to top tab

share