Primal Scream

Country girl

Primal Scream

tabs

by  EUROPEU

save to print version add songbook text version e-mail correct tuner
chordsukulelecavacokeyboardtabbassdrumsharmonicaflute Guitar Pro
close

there isn't a video lesson for this song

chords

Country girl

	  		Tuning: standard with  
 
very simple twelve bar blues 
 
e|---------------------------------------------------------------------------| 
B|---3-3-3-3-----------------------------------------------------------------| 
G|---2-2-2-0-----------------------------------------------------------------| x8 
D|---0-0-0-0-----------------------------------------------------------------| 
A|---------------------------------------------------------------------------| 
E|---------------------------------------------------------------------------| 
 
e|---------------------------------------------------------------------------| 
B|---0-0-0-0-----------------------------------------------------------------| 
G|---0-0-0-0---------------------------------------------------------------- | x4 
D|---0-0-0-0-----------------------------------------------------------------| 
A|---------------------------------------------------------------------------| 
E|---------------------------------------------------------------------------| 
 
e|---------------------------------------------------------------------------| 
B|--3-3-3-3------------------------------------------------------------------| 
G|--2-2-2-0------------------------------------------------------------------| x4 
D|--0-0-0-0------------------------------------------------------------------| 
A|---------------------------------------------------------------------------| 
E|---------------------------------------------------------------------------| 
 
e|---------------------------------------------------------------------------| 
B|--3-3-3-3-------0-0-0-0-0-0-0-0-------------------------------------------| 
G|--3-3-3-3-------0-0-0-0-0-0-0-0-------------------------------------------| 
D|--3-3-3-3-------0-0-0-0-0-0-0-0-------------------------------------------| 
A|---------------------------------------------------------------------------| 
E|---------------------------------------------------------------------------| 
 
repeat this throughout the verse and Chorus. 
 
 

		  

auto scroll beats size up size down change color hide chords drawings
tab show chords e-chords YouTube Clip e-chords hide all tabs e-chords go to top tab

share