Prawn

Praxis

Prawn

tabs

by  CARLLUZ

save to print version add songbook text version e-mail correct tuner
chordsukulelecavacokeyboardtabbassdrumsharmonicaflute Guitar Pro
close

there isn't a video lesson for this song

chords

Praxis

	  		
 

 


intro 

e--0---0---0---0---2---2---2---2----------| 
b---0---0---0---0---0---0---0---0---------| 
g-1---1---2---2---4---4---4---4-----------| 
d-----------------------------------------| 
a-----------------------------------------| 
e-----------------------------------------| x2 


e--0-0---0-0----0-0----0-0----2-2----2-2---2-2---2-2--------| 
b---0-0---0-0----0-0----0-0----0-0----0-0---0-0---0-0-------| 
g-1-----1------2------2------4------4-----4-----4-----------| 
d-----------------------------------------------------------| 
a-----------------------------------------------------------| 
e-----------------------------------------------------------| x5 

e-----------------------------------------| 
b-5-5-5-5-5-5-5-5-9-9-9-9-7-7-7-7---------| 
g-9-9-9-9-9-9-9-9-9-9-9-9-9-9-9-9---------| 
d-----------------------------------------| 
a-----------------------------------------| 
e-----------------------------------------| x4 

e--0-0---0-0----0-0----0-0----2-2----2-2---2-2---2-2--------| 
b---0-0---0-0----0-0----0-0----0-0----0-0---0-0---0-0-------| 
g-1-----1------2------2------4------4-----4-----4-----------| 
d-----------------------------------------------------------| 
a-----------------------------------------------------------| 
e-----------------------------------------------------------| x4 

e---------------------------------------------| 
b-9--9--7~---9--9--7~---9--9--7~--9--9--7~----| 
g-9--9--9~---9--9--9~---9--9--9~--9--9--9~----| 
d---------------------------------------------| 
a---------------------------------------------| 
e---------------------------------------------| x4 

e---------------------------------------------| 
b-12--12--12--9--7--9--7--9-------------------| 
g-9---9---9---9--9--9--9--9-------------------| 
d---------------------------------------------| 
a---------------------------------------------| 
e---------------------------------------------| x3 

e---------------------------------------------| 
b-12--12--12--9--7--9--12--9------------------| 
g-9---9---9---9--9--9--9---9------------------| 
d---------------------------------------------| 
a---------------------------------------------| 
e---------------------------------------------| 

e---------------------------------------------| 
b-12--12--12--9--7--9--7--9-------------------| 
g-9---9---9---9--9--9--9--9-------------------| 
d---------------------------------------------| 
a---------------------------------------------| 
e---------------------------------------------| x3 

e---------------------------------------------| 
b-12--12--12--9--7--9--12--9------------------| 
g-9---9---9---9--9--9--9---9------------------| 
d---------------------------------------------| 
a---------------------------------------------| 
e---------------------------------------------| 

e---------------------------------------------| 
b---------------------------------------------| 
g-------------6-6------13-13-11-11-9-9--------| 
d-4-4-6-6-9-9---------------------------------| 
a-----------------4-4-------------------------| 
e---------------------------------------------| x4 

e---------------------------------------------| 
b-12--12--12--9--7--9--7--9-------------------| 
g-9---9---9---9--9--9--9--9-------------------| 
d---------------------------------------------| 
a---------------------------------------------| 
e---------------------------------------------| x3 

e---------------------------------------------| 
b-12--12--12--9--7--9--12--9------------------| 
g-9---9---9---9--9--9--9---9------------------| 
d---------------------------------------------| 
a---------------------------------------------| 
e---------------------------------------------| 

e-----------------------------------------| 
b-5-5-5-5-5-5-5-5-9-9-9-9-7-7-7-7---------| 
g-9-9-9-9-9-9-9-9-9-9-9-9-9-9-9-9---------| 
d-----------------------------------------| 
a-----------------------------------------| 
e-----------------------------------------| x4 

e--0-0---0-0----0-0----0-0----2-2----2-2---2-2---2-2--------| 
b---0-0---0-0----0-0----0-0----0-0----0-0---0-0---0-0-------| 
g-1-----1------2------2------4------4-----4-----4-----------| 
d-----------------------------------------------------------| 
a-----------------------------------------------------------| 
e-----------------------------------------------------------| x5 

e-----------------------------------------| 
b-7-7-9-7-7-9-7-9-9-9-12-9-9-12-9-12------| 
g-9-9-9-9-9-9-9-9-9-9-9--9-9-9--9-9-------| 
d-----------------------------------------| 
a-----------------------------------------| 
e-----------------------------------------| repeat as necessary 


when there is only bass, this is how to play it 

e-----------------------------------------| 
b-----------------------------------------| 
g-1~---2~---4~---2~-----------------------| 
d-----------------------------------------| 
a-----------------------------------------| 
e-----------------------------------------| 
		  

See also:

tabs Deep Purple - Demonds Eye tabs Deep Purple - Money Talks tabs Ira! - Eu Quero Sempre Mais (Com Pitty, intro) tabs Albert Hammond Jr - Holiday tabs Deep Purple - Smoke on the water (intro) tabs Deep Purple - Smoke on the Water (ver. 2)
e-chords

Other versions:

tabs Prawn - Praxis
auto scroll beats size up size down change color hide chords drawings
tab show chords e-chords YouTube Clip e-chords hide all tabs e-chords go to top tab

share