Prana

home > Prana

A Valsa Do Cupido, Esse Sacana Tab

Prana

Difficulty: nolevelnolevel

by aleffederico

tuner correct add songbook print version text version save to e-mail
chordsukulelecavacokeyboardtabbassdrumsharmonicsflute Guitar Pro
chords

A Valsa Do Cupido, Esse Sacana

  		

INTRO 
e|---------------------------------------------------------------------------| 
B|-1/8--8-8-8-8-8-8-8-8-8-8-8-8--10-10-10-10-10-10-10-10-10-10-10-10---------| 
G|-2/9--9-9-8-7-7-8-9-9-8-7-8-9--11-11-10-9--9--10-11-11-10-9--10-11---------| 
D|---------------------------------------------------------------------------| 
A|---------------------------------------------------------------------------| 
E|---------------------------------------------------------------------------| 

e|------------------------------------------------------------2--------------| 
B|-15-15-15-15-15-15-15-15-15-17----------------------------1----------------| 
G|-16-16-15-14-14-15-16-16-14-17--------------------------2------------------| 
D|---------------------------------------------------------------------------| 
A|---------------------------------------------------------------------------| 
E|------------------------------------------3-3-5-6-5-3-2--------------------| 

VERSO 1 
e|------------------------------------5----------------------5---------------| 
B|-------------3----------------5--------5-------------7--------7------------| 
G|-------4--------4-----------5---5--------5---------5---5--------5----------| 
D|-----5---5--------5-------7-------7--------7-----7-------7--------7--------| 
A|---5-------5--------5--------------------------5---------------------------| 
E|-3----------------------5--------------------------------------------------| 

e|---------3----------2----5-------------------------------------------------| 
B|-------3---3--------1----4-------------------------------------------------| 
G|-----4------------2-----5--------------------------------------------------| 
D|---5------------1-----4----------------------------------------------------| 
A|---------------------------------------------------------------------------| 
E|-3-------------------------------------------------------------------------| 

e|------------------------------------5----------------------5---------------| 
B|-------------3----------------5--------5-------------7--------7------------| 
G|-------4--------4-----------5---5--------5---------5---5--------5----------| 
D|-----5---5--------5-------7-------7--------7-----7-------7--------7--------| 
A|---5-------5--------5--------------------------5---------------------------| 
E|-3----------------------5--------------------------------------------------| 

e|---------------------------------------------------------------------------| 
B|---------------------------------------------------------------------------| 
G|----4----4---4-----4-------------------------------------------------------| 
D|-------5---4---4-2---2-----------------------------------------------------| 
A|---------------------------------------------------------------------------| 
E|-3-------------------------------------------------------------------------| 

VERSO 2 
e|---------------------------------------------------------------------------| 
B|---------------------------------------------------------------------------| 
G|---4-4---4-----4-----4------5-5---5-----5-----5-----7-7---7-----7-----7----| 
D|-------5---5-4---4-2---2--------5---5-4---4-2---2-------7---7-5---5-4---4--| 
A|---------------------------------------------------------------------------| 
E|-3------------------------5-----------------------5------------------------| 

e|---------------------------------------------------------------------------| 
B|---------------------------------------------------------------------------| 
G|---4-4---4-----4-----4-----------------------------------------------------| 
D|-------5---5-4---4-2---2---------------------------------------------------| 
A|---------------------------------------------------------------------------| 
E|-3-------------------------------------------------------------------------| 
e|---------------------------------------------------------------------------| 
B|-----------------------------------------------------3-3---3-----3-----3---| 
G|---0-0---0-----0-----0------2-2---2-----2-----2----------2-----0---0-----0-| 
D|-------2---2-1---1-0---0--------2-----0---0--------0-----------------4-----| 
A|--------------------------0-----------------4---4--------------------------| 
E|-0-------------------------------------------------------------------------| 

e|---------------------------------------------------------------------------| 
B|----------------1------4---------------------------------------------------| 
G|------------------2------5-------------------------------------------------| 
D|---4-4---4----1------4-----------------------------------------------------| 
A|-------5---5---------------------------------------------------------------| 
E|-3-------------------------------------------------------------------------| 

REFRÃO 
e|---------------------------------------------------------------------------| 
B|---3-3---3-3---3-3---3------5-5---5-5---5-5---5-5----7-7---7-7---7-7---7-7-| 
G|---4-4---4-4---4-4---4------5-5---5-5---5-5---5-5----5-5---5-5---5-5---5-5-| 
D|---5-5---5-5---5-5---5------7-7---7-7---7-7---7-7----7-7---7-7---7-7---7-7-| 
A|-------5-----------5-------------------------------5-----------5-----------| 
E|-3-----------3---------4--5-----0-----5-----0------------5-----------5-----| 

e|----------------2-2---5-5--------------------------------------------------| 
B|---3-3---3-3----1-1---4-4--------------------------------------------------| 
G|---4-4---4-4----2-2---5-5--------------------------------------------------| 
D|---5-5---5-5--1-----4------------------------------------------------------| 
A|-------5-------------------------------------------------------------------| 
E|-3-------------------------------------------------------------------------| 

e|---------------------------------------------------------------------------| 
B|---3-3---3-3---3-3---3------5-5---5-5---5-5---5-5----7-7---7-7---7-7---7---| 
G|---4-4---4-4---4-4---4------5-5---5-5---5-5---5-5----5-5---5-5---5-5---5---| 
D|---5-5---5-5---5-5---5------7-7---7-7---7-7---7-7----7-7---7-7---7-7---7---| 
A|-------5-----------5-------------------------------5-----------5-----------| 
E|-3-----------3---------4--5-----0-----5-----0------------5-----------5---5-| 

e|-------------------2-------------------------------------------------------| 
B|-----------------1---------------------------------------------------------| 
G|---------------2-----------------------------------------------------------| 
D|---------------------------------------------------------------------------| 
A|---------------------------------------------------------------------------| 
E|-3-3-5-6-5-3-2-------------------------------------------------------------| 

VERSO 3 
e|------------------------------------5----------------------5---------------| 
B|-------------3----------------5--------5-------------7--------7------------| 
G|-------4--------4-----------5---5--------5---------5---5--------5----------| 
D|-----5---5--------5-------7-------7--------7-----7-------7--------7--------| 
A|---5-------5--------5--------------------------5---------------------------| 
E|-3----------------------5--------------------------------------------------| 

e|---------------------------------------------------------------------------| 
B|---------------------------------------------------------------------------| 
G|-------4---4---4-----4-----------------------------------------------------| 
D|-----5---5---4---4-2---2/14------------------------------------------------| 
A|---5-----------------------------------------------------------------------| 
E|-3-------------------------------------------------------------------------| 

VERSO 4 
e|---------------------------------------------------------------------------| 
B|------------------------------------12-11-10-------------------------------| 
G|-----12------------12-----------12-------------9-10-9/11-------------------| 
D|-14------14-13-12------9-10-11---------------------------12----------------| 
A|------------------------------------------------------------12--10--9------| 
E|---------------------------------------------------------------------------| 

e|---------------------------------------------------------------------------| 
B|---------3--------1------4-------------------------------------------------| 
G|-------4---4----2------5---------------------------------------------------| 
D|-----5--------1------4-----------------------------------------------------| 
A|---5-----------------------------------------------------------------------| 
E|-3-------------------------------------------------------------------------| 

REFRÃO 
e|---------------------------------------------------------------------------| 
B|---3-3---3-3---3-3---3------5-5---5-5---5-5---5-5----7-7---7-7---7-7---7-7-| 
G|---4-4---4-4---4-4---4------5-5---5-5---5-5---5-5----5-5---5-5---5-5---5-5-| 
D|---5-5---5-5---5-5---5------7-7---7-7---7-7---7-7----7-7---7-7---7-7---7-7-| 
A|-------5-----------5-------------------------------5-----------5-----------| 
E|-3-----------3---------4--5-----0-----5-----0------------5-----------5-----| 

e|----------------2-2---5-5--------------------------------------------------| 
B|---3-3---3-3----1-1---4-4--------------------------------------------------| 
G|---4-4---4-4----2-2---5-5--------------------------------------------------| 
D|---5-5---5-5--1-----4------------------------------------------------------| 
A|-------5-------------------------------------------------------------------| 
E|-3-------------------------------------------------------------------------| 

e|---------------------------------------------------------------------------| 
B|---3-3---3-3---3-3---3------5-5---5-5---5-5---5-5----7-7---7-7---7-7---7-7-| 
G|---4-4---4-4---4-4---4------5-5---5-5---5-5---5-5----5-5---5-5---5-5---5-5-| 
D|---5-5---5-5---5-5---5------7-7---7-7---7-7---7-7----7-7---7-7---7-7---7-7-| 
A|-------5-----------5-------------------------------5-----------5-----------| 
E|-3-----------3---------4--5-----0-----5-----0------------5-----------5-----| 

BRIDGE 
e|---------------------------------------------------------------------------| 
B|-3-----3-----3-----3------5-----5-----5-----5------7-----7-----7-----7-----| 
G|---4-----4-----4-----4------5-----5-----5-----5------5-----5-----5-----5---| 
D|-----5-----5-----5-----5------7-----7-----7-----7------7-----7-----7-----7-| 
A|---------------------------------------------------------------------------| 
E|---------------------------------------------------------------------------| 

e|---------------------------------------------------------------------------| 
B|-3-----3------1------4-----------------------------------------------------| 
G|---4-----4------2------5---------------------------------------------------| 
D|-----5-----5------1------4-------------------------------------------------| 
A|---------------------------------------------------------------------------| 
E|---------------------------------------------------------------------------| 

e|---------------------------------------------------------------------------| 
B|-3-----3-----3-----3------5-----5-----5-----5------7-----7-----7-----7-----| 
G|---4-----4-----4-----4------5-----5-----5-----5------5-----5-----5-----5---| 
D|-----5-----5-----5-----5------7-----7-----7-----7------7-----7-----7-----7-| 
A|---------------------------------------------------------------------------| 
E|---------------------------------------------------------------------------| 

e|---------------------------------------------------------------------------| 
B|-3-----3------1------4-----------------------------------------------------| 
G|---4-----4------2------5---------------------------------------------------| 
D|-----5-----5------1------4-------------------------------------------------| 
A|---------------------------------------------------------------------------| 
E|---------------------------------------------------------------------------| 

e|---------------------------------------------------------------------------| 
B|---3-3---3-3---3-3---3------5-5---5-5---5-5---5-5----7-7---7-7---7-7---7-7-| 
G|---4-4---4-4---4-4---4------5-5---5-5---5-5---5-5----5-5---5-5---5-5---5-5-| 
D|---5-5---5-5---5-5---5------7-7---7-7---7-7---7-7----7-7---7-7---7-7---7-7-| 
A|-------5-----------5-------------------------------5-----------5-----------| 
E|-3-----------3---------4--5-----0-----5-----0------------5-----------5-----| 

e|----------------2-2---5-5--------------------------------------------------| 
B|---3-3---3-3----1-1---4-4--------------------------------------------------| 
G|---4-4---4-4----2-2---5-5--------------------------------------------------| 
D|---5-5---5-5--1-----4------------------------------------------------------| 
A|-------5-------------------------------------------------------------------| 
E|-3-------------------------------------------------------------------------| 

e|---------------------------------------------------------------------------| 
B|---3-3---3-3---3-3---3------5-5---5-5---5-5---5-5----7-7---7-7---7-7---7-7-| 
G|---4-4---4-4---4-4---4------5-5---5-5---5-5---5-5----5-5---5-5---5-5---5-5-| 
D|---5-5---5-5---5-5---5------7-7---7-7---7-7---7-7----7-7---7-7---7-7---7-7-| 
A|-------5-----------5-------------------------------5-----------5-----------| 
E|-3-----------3---------4--5-----0-----5-----0------------5-----------5-----| 

e|----------------2-2---5-5--------------------------------------------------| 
B|---3-3---3-3----1-1---4-4--------------------------------------------------| 
G|---4-4---4-4----2-2---5-5--------------------------------------------------| 
D|---5-5---5-5--1-----4------------------------------------------------------| 
A|-------5-------------------------------------------------------------------| 
E|-3-------------------------------------------------------------------------| 

REFRÃO 
e|---------------------------------------------------------------------------| 
B|---3-3---3-3---3-3---3------5-5---5-5---5-5---5-5----7-7---7-7---7-7---7-7-| 
G|---4-4---4-4---4-4---4------5-5---5-5---5-5---5-5----5-5---5-5---5-5---5-5-| 
D|---5-5---5-5---5-5---5------7-7---7-7---7-7---7-7----7-7---7-7---7-7---7-7-| 
A|-------5-----------5-------------------------------5-----------5-----------| 
E|-3-----------3---------4--5-----0-----5-----0------------5-----------5-----| 

e|----------------2-2---5-5--------------------------------------------------| 
B|---3-3---3-3----1-1---4-4--------------------------------------------------| 
G|---4-4---4-4----2-2---5-5--------------------------------------------------| 
D|---5-5---5-5--1-----4------------------------------------------------------| 
A|-------5-------------------------------------------------------------------| 
E|-3-------------------------------------------------------------------------| 

e|---------------------------------------------------------------------------| 
B|---3-3---3-3---3-3---3-3----5-5---5-5---5-5---5-5----7-7---7-7---7-7---7-7-| 
G|---4-4---4-4---4-4---4-4----5-5---5-5---5-5---5-5----5-5---5-5---5-5---5-5-| 
D|---5-5---5-5---5-5---5-5----7-7---7-7---7-7---7-7----7-7---7-7---7-7---7-7-| 
A|-------5-------------------------------------------5-----------5-----------| 
E|-3-----------3-----4------5-----0-----5-----0------------5-----------5-----| 

e|------5----------------------------------------------------1---------------| 
B|------7--------------------------------------------------0-----------------| 
G|------5------------------------------------------------0-------------------| 
D|------7----------------------------------------------0---------------------| 
A|---------------------------------------------------2-----------------------| 
E|-------------------------------------------------3-------------------------| 

OUTRO 
e|---------------------------------------------------------------------------| 
B|-----------------------------------------12-11-10--------------------------| 
G|-------------------------------------12------------------------------------| 
D|-2/14-14--17--14-13-12--17--9-10-11----------------------------------------| 
A|---------------------------------------------------------------------------| 
E|---------------------------------------------------------------------------| 


************************************ 

| /   slide up 
| \   slide down 
| h   hammer-on 
| p   pull-off 
| ~   vibrato 
| +   harmonic 
| x   Mute note 
| b   Bend 
| pb  Pre-bend 
| br  Bend release 
| pbr Pre-bend release 
| brb Bend release bend 

************************************ 
	  

Search Paypal
auto scroll beats size up size down change color hide chords drawings
tab show chords e-chords YouTube Clip e-chords hide all tabs e-chords go to top tab