Porca Véia

No coração do rio grande

Porca Véia

tabs Expert expert

by  PAULO RABER

save to print version add songbook text version e-mail correct tuner
chordsukulelecavacokeyboardtabbassdrumsharmonicaflute Guitar Pro
close

there isn't a video lesson for this song

chords

No coração do rio grande

	  		 
E-------------------9---9--------------7----- 
B----------------------------------------------- 
G---9---9---9--------------7 / 8----------- 
D------------------------------------------------ 
A------------------------------------------------ 
E------------------------------------------------ 
 
E----7-----7----7----7----5-----4----------------4---4----0----5----4-----2----- 
B------------------------------------------------------------------------------------------- 
G----8----8----8----8-----6-----4 h 5 h 4----4---4----1----6----4-----2----- 
D-------------------------------------------------------------------------------------------- 
A-------------------------------------------------------------------------------------------- 
E------------------------------------------------------------------------------------------- 
 
E----2----2-----0-----4-----2-----0----0 h 2 h 0----- 
B--------------------------------------------------------------- 
G---2-----2-----1-----4-----2-----1----1 h 2 h 1----- 
D---------------------------------------------------------------- 
A---------------------------------------------------------------- 
E---------------------------------------------------------------- 
 
E------------------------------------------ 
B------------------------------------------ 
G-----------------------------------1----- 
D-----------------1----2----4------------ 
A-----2----4------------------------------ 
E------------------------------------------- 
 
Repete todo o solo e daí vem a música 
 
O solo do meio da musica e igual ao do começo. 
 
Solo do final da musica: 
 
E-------------------9---9--------------7----- 
B----------------------------------------------- 
G---9---9---9--------------7 / 8----------- 
D------------------------------------------------ 
A------------------------------------------------ 
E------------------------------------------------ 
 
E----9----7-----5----7----5----4----5-----4----2----4-----2-----0----- 
B--------------------------------------------------------------------------------- 
G----9----8-----6----8----6----4----6-----4----2----4-----2-----1----- 
D---------------------------------------------------------------------------------- 
A---------------------------------------------------------------------------------- 
E---------------------------------------------------------------------------------- 
 
Valeu galera! 

		  

auto scroll beats size up size down change color hide chords drawings
tab show chords e-chords YouTube Clip e-chords hide all tabs e-chords go to top tab

share