Polar Bear Club

Pawner

Polar Bear Club

tabs

by  EDUCASTILHO

save to print version add songbook text version e-mail correct tuner
chordsukulelecavacokeyboardtabbassdrumsharmonicaflute Guitar Pro
close

there isn't a video lesson for this song

chords

Pawner

	  		

  Use your fretting fingers to mute the surrounding strings like a boss. 
e|----------------------------------------------------------| 
B|----12-12-12----------------------------------------------| 
G|----x--x--x---------11---9----8---------3--------4--------| 
D|----9--9--9---------x----x----x---------4--------2--------| 
A|----x--x--x---------9----7----6---------2--------2--------| 
E|----0--0--0-------------------7------------------0--------| 
                 "The yel- low  line..." 

  Start adding in the lower E after a few times. 
e|----------------------------------------------------------| 
B|----12-12-12----------------------------------------------| 
G|----x--x--x---------11---9----8---------3--------4--------| 
D|----9--9--9---------x----x----x---------4--------2--------| 
A|----x--x--x---------9----7----6---------2--------2--------| 
E|----0--0--0---------0----0----7---------0--------0--------| 

  Add this little fill every 3rd time you play this thing. 
 (it's 4 times before it changes.) 
e|------------------------------------------------------------| 
B|----12-12-12------------------------------------------------| 
G|----x--x--x---------11---9----8----6h8----3--------4--------| 
D|----9--9--9---------x----x----x-----------4--------2--------| 
A|----x--x--x---------9----7----6-----------2--------2--------| 
E|----0--0--0---------0----0----7-----------0--------0--------| 

  Like I mentioned above, after four times, play this. 
 "Off into the sunset..." 
e|---------------------------------| 
B|----4------7---------------------| 
G|----4------8------4------4-------| 
D|----2------9------4------2-------| 
A|----2------6------2------2-------| 
E|------------------2------0-------| 
  I'm still unsure about the third chord in there… 

  Alright, now play that first riff again four times, 
  Remember to add that hammer-on during the third time, 
  And when you hit the fourth, add this: 
e|------------------------------------------------------------| 
B|----12-12-12------------------------------------------------| 
G|----x--x--x---------11---9----8---------3---------4--4-4-4--| 
D|----9--9--9---------x----x----x---------4---------2--2-2-2--| 
A|----x--x--x---------9----7----6---------2---------2--2-2-2--| 
E|----0--0--0---------0----0----7---------0---------0--0-0-0--| 
 |                                                            | 
e|------------------------------------------------------------| 
B|-------------------------------------------------7----------| 
G|------------------------------------------------------------| 
D|------------------------------------------/6--4-------------| 
A|------------------------------------------------------------| 
E|------------------------------------------------------------| 
  Strum that last E5 chord a few more times before changing it up. 

  Then: 
           "...a little more lasting than shame" 
e|------------------------------------------------| 
B|----4-----------7-------------------------------| 
G|----4-----------8-----------4-----------4-------| 
D|----2-----------9-----------4-----------2-------| 
A|----2-----------6-----------2-----------2-------| 
E|----------------------------2-----------0-------| 
 |                                                | 
e|------------------------------------------------| 
B|--------------------------------------4---------| 
G|------------------------------4-6-4-6-----------| 
D|------------------------------------------------| 
A|------------------------------------------------| 
E|------------------------------------------------| 
  Oh yeah! Now let that shit feedback and get ready to punch it. 


  You'll need multiple guitars for the full effect.. 

 "OH!"                        B5        F#5 
e|--------------------------------------------------| 
B|--------------------------------------------------| 
G|----8--------8--------8---------------------------| 
D|----x--------x--------x-----9----9----4----4------| 
A|----6--------6--------6-----9----9----4----4------| 
E|-------0--0-----0--0-----0--7----7----2----2------| 
  Feel free add in the E octave a fret up from that Eb on the A string. 

  Second time:                B5    E5 
e|---------------------------------------------------| 
B|---------------------------------------------------| 
G|----8--------8--------8----------------------------| 
D|----x--------x--------x-----9\----2----2----2------| 
A|----6--------6--------6-----9\----2----2----2------| 
E|-------0--0-----0--0-----0--7\----0----0----0------| 

  On the third time add this little lick. 
e|-------------------------------------------------------------| 
B|-------------------------------------------------------------| 
G|----8--------8--------8--------------------------------------| 
D|----x--------x--------x-----9-------9-------4-------4--------| 
A|----6--------6--------6-----9-------9-------4-------4--------| 
E|-------0--0-----0--0-----0--7-------7-------2-------2--------| 
 |                                                             | 
e|-------------------------------------------------------------| 
B|-------------------------------------------------------------| 
G|----------------------------4/--6-6-6/--8-8-8\--4-4-4\--3----| 
D|----------------------------x---x-x-x---x-x-x---x-x-x---x----| 
A|----------------------------2/--4-4-4/--6-6-6\--2-2-2\--1----| 
E|-------------------------------------------------------------| 

  And then... 
  "Hocked it all for circumstance" 
e|------------------------------------------------------| 
B|------------------------------------------------------| 
G|------------------------------------------------------| 
D|----6--6--6--6--6--6--6--6--4--4--4--4--4--4--4--4----| 
A|----6--6--6--6--6--6--6--6--4--4--4--4--4--4--4--4----| 
E|----4--4--4--4--4--4--4--4--2--2--2--2--2--2--2--2----| 
 |                                                      | 
e|------------------------------------------------------| 
B|----12----------------------11----------7-------------| 
G|----x--strum these like mad-x-----------x-------------| 
D|----9-----------------------8-----------4-------------| 
A|------------------------------------------------------| 
E|------------------------------------------------------| 

  Now harmonize! 
e|-------------------------------------------------------------| 
B|-------------------------------------------------------------| 
G|----8--------8--------8--------------------------------------| 
D|----x--------x--------x-----9-------9-------4-------4--------| 
A|----6--------6--------6-----9-------9-------4-------4--------| 
E|-------0--0-----0--0-----0--7-------7-------2-------2--------| 
 |                                                             | 
e|-------------------------------------------------------------| 
B|-------------------------------------------------------------| 
G|----11-------11-------11----4/--6-6-6/--8-8-8\--4-4-4\--3----| 
D|----x--------x--------x-----x---x-x-x---x-x-x---x-x-x---x----| 
A|----9--------9--------9-----2/--4-4-4/--6-6-6\--2-2-2\--1----| 
E|-------0--0-----0--0-----0-----------------------------------| 


e|-------------------------------------------------------------| 
B|-------------------------------------------------------------| 
G|----8--------8--------8--------------------------------------| 
D|----x--------x--------x-----9\------2--2--2--2--2--2---------| 
A|----6--------6--------6-----9\------2--2--2--2--2--2---------| 
E|-------0--0-----0--0-----0--7\------0--0--0--0--0--0---------| 
 |                                                             | 
e|-------------------------------------------------------------| 
B|-------------------------------------------------------------| 
G|----11-------11-------11------------8--8--8--8--8--8---------| 
D|----x--------x--------x-----9\------x--x--x--x--x--x---------| 
A|----9--------9--------9-----9\------6--6--6--6--6--6---------| 
E|-------0--0-----0--0-----0--7\-------------------------------| 
 |                                                             | 
e|-------------------------------------------------------------| 
B|-------------------------------------------------------------| 
G|----------------4--6--8--------------------------------------| 
D|----------------x--x--x--------------------------------------| 
A|----------------2--4--6--------------------------------------| 
E|-------------------------------------------------------------| 


e|-------------------------------------------------------------| 
B|-------------------------------------------------------------| 
G|----8--------8--------8--------------------------------------| 
D|----x--------x--------x-----9-------9-------4-------4--------| 
A|----6--------6--------6-----9-------9-------4-------4--------| 
E|-------0--0-----0--0-----0--7-------7-------2-------2--------| 
 |                                                             | 
e|-------------------------------------------------------------| 
B|-------------------------------------------------------------| 
G|----11-------11-------11----4/--6-6-6/--8-8-8\--4-4-4\--3----| 
D|----x--------x--------x-----x---x-x-x---x-x-x---x-x-x---x----| 
A|----9--------9--------9-----2/--4-4-4/--6-6-6\--2-2-2\--1----| 
E|-------0--0-----0--0-----0-----------------------------------| 


e|------------------------------------------------------| 
B|------------------------------------------------------| 
G|------------------------------------------------------| 
D|----6--6--6--6--6--6--6--6--4--4--4--4--4--4--4--4----| 
A|----6--6--6--6--6--6--6--6--4--4--4--4--4--4--4--4----| 
E|----4--4--4--4--4--4--4--4--2--2--2--2--2--2--2--2----| 
 |                                                      | 
e|------------------------------------------------------| 
B|----12----------------------11----------7-------------| 
G|----x--strum strum strum----x-----------x-------------| 
D|----9-----------------------8-----------4-------------| 
A|------------------------------------------------------| 
E|------------------------------------------------------| 

Now do a heart-rockin' guitar solo! 

  Continue playing that sweet riff underneath. 
 (I'll tab a little harmony for those playing it solo.) 
e|--------------------------------------------------| 
B|----7--------7--------7---------------------------| 
G|----8--------8--------8---------------------------| 
D|----x--------x--------x-----9----9----4----4------| 
A|----6--------6--------6-----9----9----4----4------| 
E|-------0--0-----0--0-----0--7----7----2----2------| 

  Lick it up: 
e|-------------------------------------------------------| 
B|-------------------------------------------------------| 
G|----------------------------------11-------------------| 
D|----------11h13-------------11h13-------13p11----------| 
A|----------------14----------------------------14-------| 
E|-------------------------------------------------------| 
Beat: X     -     X     -     X     -     X     -     X 

e|--------------------------------------------| 
B|----12----------12----11----------11--------| 
G|----------11----------------11----------11--| Keep tapping 
D|--------------------------------------------| that foot! 
A|--------------------------------------------| 
E|--------------------------------------------| 
Beat: -     X     -     X     -     X     - 

e|--------------------------------------------------| 
B|--------------------------------------------------| 
G|----------------------------------11--------------| 
D|----------11h13-------------11h13-------13p11-----| 
A|----------------14----------------------------14--| 
E|--------------------------------------------------| 
Beat: X     -     X     -     X     -     X     - 

e|--------------------------------------------| 
B|--------------------------------------------| 
G|----13b15r13p11-----------------------------| 
D|----------------13--------------------------| 
A|--------------------------------------------| 
E|--------------------------------------------| 
Beat: X     -    X 


End with this: 
There's probably another guitar in there playing a 
straight-up E5 chord too. 
e|--------------------------------------------------| 
B|----7--------7--------7---------------------------| 
G|----8--------8--------8---------------------------| 
D|----x--------x--------x-----6----6----------------| 
A|----6--------6--------6-----6----6----------------| 
E|-------0--0-----0--0-----0--0----0----------------| 


There you have it! 
Wicked awesome song and one great new album from one of my favourite bands. 
I've already got my tickets to see them in October and I can't hardly wait. 
Thanks again for reading and rocking along. 
Yours truly, 
Jason 


And just cause it leads into the next song... 

e|------------------------------------------| 
B|------------------------------------------| 
G|---------------4--6---8--9---1---1--------| 
D|----6----6-x-x-4--6---8--9 --2---2--------| 
A|----6----6-x-x-2--4---6--7---2---2--------| 
E|----4----4-x-x---------------0---0--------| 

  Give it a little bit of: 
e|--------------------------------------------| 
B|--------------------------------------------| 
G|----/4-4-4-4-4-4-4p3------------------------| 
D|---------------------6----------------------| 
A|--------------------------------------------| 
E|--------------------------------------------| 
 
		  

Full key step upFull key step up
Half key step upHalf key step up
Half key step downHalf key step down
Full key step downFull key step down
hide glossary

See also:

tabs Red Hot Chili Peppers - Under The Bridge (ver. 2) tabs Good Charlotte - Hold On tabs Ben Harper - Diamonds on inside tabs Good Charlotte - Predictable tabs Paramore - Misery Business tabs Red Hot Chili Peppers - Scar Tissue (ver. 4)
e-chords

Other versions:

tabs Polar Bear Club - Pawner
auto scroll beats size up size down change color hide chords drawings
tab show chords e-chords YouTube Clip e-chords hide all tabs e-chords go to top tab

share with facebook