Polar Bear Club

Another Night In The Rock

Polar Bear Club

tabs

by  EDUCASTILHO

save to print version add songbook text version e-mail correct tuner
chordsukulelecavacokeyboardtabbassdrumsharmonicaflute Guitar Pro
close

there isn't a video lesson for this song

chords

Another Night In The Rock

	  		
Intro 
E|--------------------------------|--------------------------------| 
B|--------------------------------|--------------------------------| 
G|------------------------0-------|--------------------------------| 
D|-------0------------4-----4p0---|-------0-------------0----------| 
A|-----0-----0------0-------------|-----0-----0-------0-----0------| 
E|-3------------------------------|-3-------------0-3--------------| 

E|--------------------------------|--------------------------------| 
B|--------------------------------|--------------------------------| 
G|---------------------0----------|---------------7-7---7----------| 
D|-------0---------4-----4p0------|-------0-------7-7---7-2-2---2--| 
A|-----0-----0---0----------------|-----0-----0---5-5---5-2-2---2--| 
E|-3------------------------------|-3---------------------0-0---0--| 

E|-------------------------0------|--------------------------------| 
B|-------------------0h2h3---3p0--|--------------------------------| 
G|-2-2---2-2-2---2----------------|-4-4---4-4-4---4----------------| 
D|-2-2---2-2-2---2----------------|-4-4---4-4-4---4-4-4---4-4-4---4| 
A|-0-0---0-0-0---0----------------|-2-2---2-2-2---2-4-4---4-4-4---4| 
E|--------------------------------|-----------------2-2---2-2-2---2| 

E|-------------------------0------|--------------------------------| 
B|-------------------0h2h3---3p0--|--------------------------------| 
G|-2-2---2-2-2---2----------------|-4-4---4-4-4---4----------------| 
D|-2-2---2-2-2---2----------------|-4-4---4-4-4---4-4-4-4-4-4-4-4-4| 
A|-0-0---0-0-0---0----------------|-2-2---2-2-2---2-4-4-4-4-4-4-4-4| 
E|--------------------------------|-----------------2-2-2-2-2-2-2-2| 

E|-------------------------0------|--------------------------------| 
B|-------------------0h2h3---3p0--|---------5h7p5------------------| 
G|/7---6---4h6--------------------|/7---6---------7----------------| 
D|--------------------------------|--------------------------------| 
A|--------------------------------|--------------------------------| 
E|--------------------------------|--------------------------------| 

E|/10-12-9-7h9-12-9--------0------|/10-12-9-7h9-12-----------------| 
B|-------------------0h2h3---3p0--|----------------10--------------| 
G|--------------------------------|--------------------------------| 
D|--------------------------------|--------------------------------| 
A|--------------------------------|--------------------------------| 
E|--------------------------------|--------------------------------| 

verse 1 
e|--------------------------------|--------------------------12--12| 
B|--------------------------------|-----------------------/15--15--| 
G|-2-2-2-2------------------------|-7-7-7-7------------------------| 
D|-2-2-2-2------------------------|-7-7-7-7------------------------|  
A|-0-0-0-0------------------------|-5-5-5-5------------------------| 
E|--------------------------------|--------------------------------| 

e|--------------------------------|--------------------------------| 
B|--------------------------------|--------------------------------| 
G|-2-2-2-2------------------------|-7-7-7-7------------------------| 
D|-2-2-2-2------------------------|-7-7-7-7------4-5--5-4-5--5-----|  
A|-0-0-0-0------------------------|-5-5-5-5------4-5--5-4-5--5-----| 
E|--------------------------------|--------------2-3--3-2-3--3-----| 

e|--------------------------------|--------------------------------| 
B|--------------------------------|--------------------------------| 
G|-2-2-2-2------------------------|-7-7-7-7------------------------| 
D|-2-2-2-2------4-4-4-4-5-5-5-----|-7-7-7-7------4-4-4-4-2-2-2-----|  
A|-0-0-0-0------4-4-4-4-5-5-5-----|-5-5-5-5------4-4-4-4-2-2-2-----| 
E|--------------2-2-2-2-3-3-3-----|--------------2-2-2-2-0-0-0-----| 

e|--------------------------------|--------------------------------| 
B|--------------------------------|--------------------------------| 
G|-2-2-2-2------------------------|-7-7-7-7---------------7--7-----| 
D|-2-2-2-2------4-4-4-4-5-5-5-----|-7-7-7-7------4-5--5-4-7--7-----|  
A|-0-0-0-0------4-4-4-4-5-5-5-----|-5-5-5-5------4-5--5-4-5--5-----| 
E|--------------2-2-2-2-3-3-3-----|--------------2-3--3-2----------| 

Pre-Chorus 1 
E|--------------------------------|--------------------------------| 
B|--------------------------------|--------------------------------| 
G|------------------------0-------|--------------------------------| 
D|-------0------------4-----4p0---|-------0-------------0----------| 
A|-----0-----0------0-------------|-----0-----0-------0-----0------| 
E|-3------------------------------|-3-------------0-3--------------| 

E|--------------------------------|--------------------------------| 
B|--------------------------------|--------------------------------| 
G|---------------------0----------|---------------7-7---7----------| 
D|-------0---------4-----4p0------|-------0-------7-7---7-2-2---2--| 
A|-----0-----0---0----------------|-----0-----0---5-5---5-2-2---2--| 
E|-3------------------------------|-3---------------------0-0---0--| 

Chorus 
E|-------------------------0------|--------------------------------| 
B|-------------------0h2h3---3p0--|--------------------------------| 
G|-2-2---2-2-2---2----------------|-4-4---4-4-4---4----------------| 
D|-2-2---2-2-2---2----------------|-4-4---4-4-4---4-4-4---4-4-4---4| 
A|-0-0---0-0-0---0----------------|-2-2---2-2-2---2-4-4---4-4-4---4| 
E|--------------------------------|-----------------2-2---2-2-2---2| 

E|-------------------------0------|--------------------------------| 
B|-------------------0h2h3---3p0--|--------------------------------| 
G|-2-2---2-2-2---2----------------|-4-4---4-4-4---4----------------| 
D|-2-2---2-2-2---2----------------|-4-4---4-4-4---4-4-4-4-4-4-4-4-4| 
A|-0-0---0-0-0---0----------------|-2-2---2-2-2---2-4-4-4-4-4-4-4-4| 
E|--------------------------------|-----------------2-2-2-2-2-2-2-2| 

e|-------------------------0------|--------------------------------| 
B|-------------------0h2h3---3p0--|--------------------------------| 
G|-7-7-6---9----------------------|-7-7-6---9-119------------------| 
D|-x-x-x---x----------------------|-x-x-x---x-x-x---7---7-7---7----| 
A|-5-5-4---7----------------------|-5-5-4---7/9\7---x---x-x---x----| 
E|--------------------------------|-----------------5---5-5---5----| 

e|-------------------------0------|--------------------------------| 
B|-------------------0h2h3---3p0--|--------------------------------| 
G|-7-7-6---9----------------------|-7-7-6---9-119------------------| 
D|-x-x-x---x----------------------|-x-x-x---x-x-x---7---7-7---7----| 
A|-5-5-4---7----------------------|-5-5-4---7/9\7---x---x-x---x----| 
E|--------------------------------|-----------------5---5-5---5----| 

Post-Chorus 
e|--------------------------------|--------------------------------| 
B|--------------------------------|--------------------------------| 
G|-2-2-2-2------------------------|-7-7-7-7------------------------| 
D|-2-2-2-2------4-4-4-4-5-5-5-----|-7-7-7-7------------------------|  
A|-0-0-0-0------4-4-4-4-5-5-5-----|-5-5-5-5------4-4-4-4-2-2-2-----| 
E|--------------2-2-2-2-3-3-3-----|--------------2-2-2-2-0-0-0-----| 
                                                 . . . . . . . 
verse 2 
e|--------------------------------|--------------------------12--12| 
B|--------------------------------|-----------------------/15--15--| 
G|-2-2-2-2------------------------|-7-7-7-7------------------------| 
D|-2-2-2-2------------------------|-7-7-7-7------------------------|  
A|-0-0-0-0------------------------|-5-5-5-5------------------------| 
E|--------------------------------|--------------------------------| 

e|--------------------------------|--------------------------------| 
B|--------------------------------|--------------------------------| 
G|-2-2-2-2------------------------|-7-7-7-7------------------------| 
D|-2-2-2-2------------------------|-7-7-7-7------4-5--5-4-5--5-----|  
A|-0-0-0-0------------------------|-5-5-5-5------4-5--5-4-5--5-----| 
E|--------------------------------|--------------2-3--3-2-3--3-----| 

e|--------------------------------|--------------------------------| 
B|--------------------------------|--------------------------------| 
G|-2-2-2-2------------------------|-7-7-7-7------------------------| 
D|-2-2-2-2------4-4-4-4-5-5-5-----|-7-7-7-7------4-4-4-4-2-2-2-----|  
A|-0-0-0-0------4-4-4-4-5-5-5-----|-5-5-5-5------4-4-4-4-2-2-2-----| 
E|--------------2-2-2-2-3-3-3-----|--------------2-2-2-2-0-0-0-----| 

e|--------------------------------|--------------------------------| 
B|--------------------------------|--------------------------------| 
G|-2-2-2-2------------------------|-7-7-7-7---------------7--7-----| 
D|-2-2-2-2------4-4-4-4-5-5-5-----|-7-7-7-7------4-5--5-4-7--7-----|  
A|-0-0-0-0------4-4-4-4-5-5-5-----|-5-5-5-5------4-5--5-4-5--5-----| 
E|--------------2-2-2-2-3-3-3-----|--------------2-3--3-2----------| 

Pre-Chorus 2 
E|--------------------------------|--------------------------------| 
B|--------------------------------|--------------------------------| 
G|---------------------0----------|-----------------7-7------------| 
D|-------0---------4-----4p0------|-------0---------7-7---2-2------| 
A|-----0-----0---0----------------|-----0-----0-----5-5---2-2------| 
E|-3------------------------------|-3---------------------0-0------| 

Bridge 
e|--------------------------------|--------------------------------| 
B|--------------------------------|--------------------------------| 
G|--------------------------------|--------------------------------| 
D|--------------------------------|--------------------------------| x2 
A|--------------------------------|--------------------------------| 
E|--------------------------------|--------------------------------| 

e|--------------------------------|--------------------------------| 
B|--------------------------------|--------------------------------| 
G|--------------------------------|--------------------------------| 
D|--------------------------------|----------0---------------0-----| x3 
A|-0---------------0--------------|-0--2------------0--2-----------| 
E|----3--3--3---------3--3--3-----|-------2---------------2--------| 

e|--------------------------------|--------------------------------| 
B|--------------------------------|--------------------------------| 
G|--------------------------------|--------------------------------| 
D|--------------------------------|----------0---------------------| 
A|-0---------------0--------------|-0--2------------0--2--2--------| 
E|----3--3--3---------3--3--3-----|-------2------------------------| 

Outro 
e|--------------------------------|--------------------------------| 
B|--------------------------------|--------------------------------| 
G|-7-9-9-4-2----------------------|--------------------------------| 
D|-7-9-9-4-2----------------------|-----------------4-5--5-4-5--5--|  
A|-5-7-7-2-0----------------------|-----------------4-5--5-4-5--5--| 
E|--------------------------------|-----------------2-3--3-2-3--3--| 

e|--------------------------------|--------------------------------| 
B|--------------------------------|--------------------------------| 
G|-2------------------------------|--------------------------------| 
D|-2------------------------------|----------------4-4-4-4-4-5-----|  
A|-0------------------------------|----------------4-4-4-4-4-5-----| 
E|--------------------------------|----------------2-2-2-2-2-3-----| 

e|--------------------------------|--------------------------------| 
B|--------------------------------|--------------------------------| 
G|-2---2---2----------------------|--------------------------------| 
D|-2---2---2----------------------|-----------------4-5--5-4-5--5--|  
A|-0---0---0----------------------|-----------------4-5--5-4-5--5--| 
E|--------------------------------|-----------------2-3--3-2-3--3--| 

e|--------------------------------|--------------------------------| 
B|--------------------------------|--------------------------------| 
G|-2------------------------------|--------------------------------| 
D|-2------------------------------|-----------------4-4-4-4-4-2----|  
A|-0------------------------------|-----------------4-4-4-4-4-2----| 
E|--------------------------------|-----------------2-2-2-2-2-0----| 

e|--------------------------------|--------------------------------| 
B|--------------------------------|--------------------------------| 
G|-----------------2--------------|-2--4-----7------2--4-----7-----| 
D|----5--5--5------2--5--5--5-----|-2--4--4--7------2--4--4--7-----|  
A|----5--5--5------0--5--5--5-----|-0--2--4--5------0--2--4--5-----| 
E|----3--3--3---------3--3--3-----|-------2---------------2--------| 

e|--------------------------------|--------------------------------| 
B|--------------------------------|--------------------------------| 
G|-2---------------2--------------|-2--4-----7------2--4--4---7-9-9| 
D|-2--5--5--5------2--5--5--5-----|-2--4--4--7------2--4--4---7-9-9|  
A|-0--5--5--5------0--5--5--5-----|-0--2--4--5------0--2--2---5-7-7| 
E|----3--3--3---------3--3--3-----|-------2------------------------| 

e|--------------------------------|--------------------------------| 
B|--------------------------------|--------------------------------| 
G|-2---------------2--------------|-2--4-----7------2--4-----7-----| 
D|-2--5--5--5------2--5--5--5-----|-2--4--4--7------2--4--4--7-----|  
A|-0--5--5--5------0--5--5--5-----|-0--2--4--5------0--2--4--5-----| 
E|----3--3--3---------3--3--3-----|-------2---------------2--------| 

e|--------------------------------|--------------------------------| 
B|--------------------------------|--------------------------------| 
G|-2---------------2--------------|-2--4-----7------2--4--4---7-9-9| 
D|-2--5--5--5------2--5--5--5-----|-2--4--4--7------2--4--4---7-9-9|  
A|-0--5--5--5------0--5--5--5-----|-0--2--4--5------0--2--2---5-7-7| 
E|----3--3--3---------3--3--3-----|-------2------------------------| 

e|--------------------------------|--------------------------------| 
B|--------------------------------|--------------------------------| 
G|-2---------------2--------------|-2--4-----7------2--4-----7-----| 
D|-2--5--5--5------2--5--5--5-----|-2--4--4--7------2--4--4--7-----|  
A|-0--5--5--5------0--5--5--5-----|-0--2--4--5------0--2--4--5-----| 
E|----3--3--3---------3--3--3-----|-------2---------------2--------| 

e|--------------------------------|--------------------------------| 
B|--------------------------------|--------------------------------| 
G|-2---------------2--------------|-2--4-----7------2--4--4---7-9-9| 
D|-2--5--5--5------2--5--5--5-----|-2--4--4--7------2--4--4---7-9-9|  
A|-0--5--5--5------0--5--5--5-----|-0--2--4--5------0--2--2---5-7-7| 
E|----3--3--3---------3--3--3-----|-------2------------------------|