Pluton Svea

My Blood Is My Honour

Pluton Svea

tabs

by  ANG-LETRA

save to print version add songbook text version e-mail correct tuner
chordsukulelecavacokeyboardtabbassdrumsharmonicaflute Guitar Pro
close

there isn't a video lesson for this song

chords

My Blood Is My Honour

	  		

Intro/interlude: 

E|--------------------------------------------------| 
B|--------------------------------------------------| 
G|--------------------------4-----------------------| 
D|--------6--------7--------------7-----6--7--6--4--| 
A|--4--4-----4--4-----4--4-----4-----4--------------| 
E|--------------------------------------------------| 

E|--------------------------------------------------| 
B|--------------------------------------------------| 
G|--------------------------------------------------| 
D|--------2--------2--------2--------2--------2-----| 
A|--0--0--0--0--0--0--0--0--0--0--0--0--0--0--0--0--| 
E|--------------------------------------------------| 

E|--------------------------------------------------| 
B|--------------------------------------------------| 
G|--------------------------4-----------------------| 
D|--------6--------7--------------7-----6--7--6--4--| 
A|--4--4-----4--4-----4--4-----4-----4--------------| 
E|--------------------------------------------------| 

E|--------------------------------------------------| 
B|--------------------------------------------------| 
G|--------------------------------------------------| 
D|--------2--------2-----2--------4--------4-----4--| 
A|--0--0--0--0--0--0--0--0--2--2--2--2--2--2--2--2--| 
E|--------------------------------------------------| 

E|--------------------------------------------------| 
B|--------------------------------------------------| 
G|--------------------------4-----------------------| 
D|--------6--------7--------------7-----6--7--6--4--| 
A|--4--4-----4--4-----4--4-----4-----4--------------| 
E|--------------------------------------------------| 

E|--------------------------------------------------| 
B|--------------------------------------------------| 
G|--------------------------------------------------| 
D|--------2--------2--------2--------2--------2-----| 
A|--0--0--0--0--0--0--0--0--0--0--0--0--0--0--0--0--| 
E|--------------------------------------------------| 

E|--------------------------------------------------| 
B|--------------------------------------------------| 
G|--------------------------4-----------------------| 
D|--------6--------7--------------7-----6--7--6--4--| 
A|--4--4-----4--4-----4--4-----4-----4--------------| 
E|--------------------------------------------------| 

E|-----------------------------------------------| 
B|-----------------------------------------------| 
G|-----------------------------------------------| 
D|--2---2--2--2--2--2--2---4---4--4--4--4--4--4--| 
A|--0---0--0--0--0--0--0---2---2--2--2--2--2--2--| 
E|-----------------------------------------------| 

Verse: 

E|--------------------------------------------------| 
B|--------------------------------------------------| 
G|--------------------------------------------------| 
D|--------6--------6--------6--------6--------6-----| 
A|--4--4--4--4--4--4--4--4--4--4--4--4--4--4--4--4--| 
E|--------------------------------------------------| 

E|--------------------------------------------------| 
B|--------------------------------------------------| 
G|--------------------------------------------------| 
D|--------2--------2--------2--------2--------2-----| 
A|--0--0--0--0--0--0--0--0--0--0--0--0--0--0--0--0--| 
E|--------------------------------------------------| 

E|--------------------------------------------------| 
B|--------------------------------------------------| 
G|--------------------------------------------------| 
D|--------6--------6--------6--------6--------6-----| 
A|--4--4--4--4--4--4--4--4--4--4--4--4--4--4--4--4--| 
E|--------------------------------------------------| 

E|--------------------------------------------------| 
B|--------------------------------------------------| 
G|--------------------------------------------------| 
D|--------2--------2-----2--------4--------4-----4--| 
A|--0--0--0--0--0--0--0--0--2--2--2--2--2--2--2--2--| 
E|--------------------------------------------------| 

Chorus: 

E|--------------------------------------------------| 
B|--------------------------------------------------| 
G|--------------------------------------------------| 
D|--------------------------4--4--4--4--4--4--4--4--| 
A|--2--2--2--2--2--2--2--2--2--2--2--2--2--2--2--2--| 
E|--0--0--0--0--0--0--0--0--------------------------| 

E|--------------------------------------------------| 
B|--------------------------------------------------| 
G|--------------------------------------------------| 
D|--6--6--6--6--6--6--6--6--2--2--2--2--4--4--4--4--| 
A|--4--4--4--4--4--4--4--4--0--0--0--0--2--2--2--2--| 
E|--------------------------------------------------| 

After Chorus: 

E|--------------------------------------------------------------| 
B|--------------------------------------------------------------| 
G|--------------------------------------------------------------| 
D|-----------------4-----------------4--2--4--2--2--4--4--6--4--| 
A|--2--2--2--2--2--2--2--2--2--2--2--2--0--0--0--0--2--2--2--2--| 
E|--0--0--0--0--0-----0--0--0--0--0-----------------------------| 

Solo:  (Listen to get the right rhythm) 

E|------------------------------------------------------------------| 
B|--------------------------------------7-----------7--9--10--9--7--| 
G|--9--8--6--9--8--6--9--8--6--6--8--9-----9--8--9------------------| 
D|------------------------------------------------------------------| 
A|------------------------------------------------------------------| 
E|------------------------------------------------------------------| 

E|-----------------------------------------------------------------------| 
B|--9--10--9--10--9--7--7-----------7-----------7--9--10--9--7-----------| 
G|-------------------------9--8--9-----9--8--9------------------9--8--9--| 
D|-----------------------------------------------------------------------| 
A|-----------------------------------------------------------------------| 
E|-----------------------------------------------------------------------| 

Play verse riff during solo. 
		  

See also:

tabs Veronica Maggio - Jag Kommer (intro) tabs Roxette - The Look tabs Roxette - The Rain tabs Lars Winnerback - Hugger I Sten tabs Roxette - Devil And Daughter tabs The Tallest Man On Earth - A Lion's Heart
e-chords

Other versions:

tabs Pluton Svea - My Blood Is My Honour
auto scroll beats size up size down change color hide chords drawings
tab show chords e-chords YouTube Clip e-chords hide all tabs e-chords go to top tab

share