Plus-44

home > Plus-44

Little Death Tab

Plus-44

Difficulty: BeginnerBeginner

by fboy

tuner correct add songbook print version text version save to e-mail
chordsukulelecavacokeyboardtabbassdrumsharmonicsflute Guitar Pro
chords

Little Death

  		verse 
E|-------------------------------------| 
B|-----0--------0----------------------| 
G|-------0~-------0~-------0~-------0~-| 
D|-222------222---------00-------00----| x2 
A|-------------------33-------33-------| 
E|-------------------------------------| 

verse variation (timing & picking slightly different) 
E|------------------------------------------------| 
B|-----0-----------0------------------------------| 
G|------0000--------0000--------00000------00000--| 
D|-222---------222------------00---------00-------| x2 
A|-------------------------33---------33----------| 
E|------------------------------------------------| 

verse variation x4 

Chorus 
E|------------------------------------| 
B|------------------------------------| 
G|------------------------------------| 
D|-5555555555555555-2222222222222222--| x4 
A|-5555555555555555-2222222222222222--| 
E|-3333333333333333-0000000000000000--| 

verse variation x2 
Chorus 

bridge (x2) 
E|---------------------------------------------| 
B|---------------------------------------------| 
G|-7777777777-555-44-222-444-------------------| 
D|-xxxxxxxxxx-xxx-xx-xxx-xxx-555-777-555-4444--| 
A|-5555555555-333-22-000-222-xxx-xxx-xxx-xxxx--| 
E|---------------------------333-555-333-2222--| 

E|--------------------------------------| 
B|--------------------------------------| 
G|-7777777777-555-44-999999999999-4444--| 
D|-xxxxxxxxxx-xxx-xx-xxxxxxxxxxxx-xxxx--| 
A|-5555555555-333-22-777777777777-2222--| 
E|--------------------------------------| 

break (guitar 1) 
E|-----7-----7-----7~--------| 
B|---8-----8-----8-8~-7h8p7--| 
G|-9-----9-----9-------------| 
D|---------------------------| x4 
A|---------------------------| 
E|---------------------------| 

break (guitar 2) 
E|-0~--------| 
B|-0~--------| 
G|-0~---5~---| 
D|-2~---5~---| x4 
A|-2~---3~---| 
E|-0~--------| 

	  

Search Paypal
auto scroll beats size up size down change color hide chords drawings
tab show chords e-chords YouTube Clip e-chords hide all tabs e-chords go to top tab