Plus-44

home > Plus-44

Baby,Come On (acoustic) Tab

Plus-44

Difficulty: ExpertExpert

by fboy

tuner correct add songbook print version text version save to e-mail
chordsukulelecavacokeyboardtabbassdrumsharmonicsflute Guitar Pro
chords

Baby,Come On (acoustic)

  		Intro: 
e|----------------------------------------------------------------------------| 
B|----------------------------------------------------------------------------| 
G|-7-----4-----------4-----7--------------------------------------------------| 
D|-7--5--4--5--7--5--4--5--7--5--5--------------------------------------------| 
A|-5--5--2--5--7--5--2--5--5--5--5--------------------------------------------| 
E|----3-----3--5--3-----3-----3--3--------------------------------------------| 

Verse: 
e|---------------------------------------------------------------| 
B|---------------------------------------------------------------| 
G|---------------------------------------------------------------| 
D|---4---4---4---4---4-------------------------------------------| 2X 
A|-55--55--55--55--55--5----5---5---5---5---5--------------------| 
E|------------------------33--33--33--33--33--3------------------| 

e|------------------------------------------------| 
B|------------------------------------------------| 
G|------------------------------------------------| 
D|------------------------------------------------| 
A|---7---7--7---5---5--5--------------------------| 
E|-55--55--5--33--33--3---------------------------| 

e|---------------------------------------------------------------| 
B|---------------------------------------------------------------| 
G|---------------------------------------------------------------| 
D|---4---4---4---4---4-------------------------------------------| 2X 
A|-55--55--55--55--55--5----5---5---5---5---5--------------------| 
E|------------------------33--33--33--33--33--3------------------| 

Chorus: 
e|-------------------|    |------------------------| 
B|-------------------|    |------------------------| 
G|--------4----------| 2X |------------------------| 1X 
D|--7--5--4--5-------|    |--7---5---5-------------| 
A|--7--5--2--5-------|    |--7---5---5-------------| 
E|--5--3-----3-------|    |--5---3---3-------------| 

Riff: 
e|---------------------------------------------------------------------------| 
B|---------------------------------------------------------------------------| 
G|---------------------------------------------------------------------------| 
D|---4---4---4---4---4~-------4---4---4---4---4~-------------------------------|  
A|-55--55--55--55--55------55--55--55--55--55--------------------------------| 
E|---------------------------------------------------------------------------| 

Verse: 
e|---------------------------------------------------------------| 
B|---------------------------------------------------------------| 
G|---------------------------------------------------------------| 
D|---4---4---4---4---4-------------------------------------------| 2X 
A|-55--55--55--55--55--5----5---5---5---5---5--------------------| 
E|------------------------33--33--33--33--33--3------------------| 

e|------------------------------------------------| 
B|------------------------------------------------| 
G|------------------------------------------------| 
D|------------------------------------------------| 
A|---7---7--7---5---5--5--------------------------| 
E|-55--55--5--33--33--3---------------------------| 

e|---------------------------------------------------------------| 
B|---------------------------------------------------------------| 
G|---------------------------------------------------------------| 
D|---4---4---4---4---4-------------------------------------------| 2X 
A|-55--55--55--55--55--5----5---5---5---5---5--------------------| 
E|------------------------33--33--33--33--33--3------------------| 

Chorus: 
e|-------------------|    |------------------------| 
B|-------------------|    |------------------------| 
G|--------4----------| 2X |------------------------| 1X 
D|--7--5--4--5-------|    |--7---5---5-------------| 
A|--7--5--2--5-------|    |--7---5---5-------------| 
E|--5--3-----3-------|    |--5---3---3-------------| 

Bridge: 
e|---------------------------------------------------------------------------| 
B|---------------------------------------------------------------------------| 
G|--7-----4--4--7-----4--5--7-----4--4--7-----4--4---------------------------| 
D|--7--7--4--4--7--7--4--5--7--7--4--4--7--7--4--4---------------------------| 
A|--5--7--2--2--5--7--2--3--5--7--2--2--5--7--2--2---------------------------| 
E|-----5-----------5-----------5-----------5---------------------------------| 

Chorus:                                                   End: 
e|-------------------|    |------------------------|     |------| 
B|-------------------|    |------------------------|     |------|    
G|--------4----------| 4X |------------------------| 1X  |-7~---|  
D|--7--5--4--5-------|    |--7---5---5-------------|     |-7~---|  
A|--7--5--2--5-------|    |--7---5---5-------------|     |-5~---| 
E|--5--3-----3-------|    |--5---3---3-------------|     |------| 



| /  slide up 
| \  slide down 
| h  hammer-on 
| p  pull-off 
| ~  vibrato/let ring 
| +  harmonic 
| x  Mute note 

[email protected] 

	  

Search Paypal
auto scroll beats size up size down change color hide chords drawings
tab show chords e-chords YouTube Clip e-chords hide all tabs e-chords go to top tab