Plus-44

home > Plus-44

155 Tab

Plus-44

Difficulty: AdvancedAdvanced

by fboy

tuner correct add songbook print version text version save to e-mail
chordsukulelecavacokeyboardtabbassdrumsharmonicsflute Guitar Pro
chords

155

  		Intro  (GUITAR 1) (2x)   Time: (0:00) 
|-----------------------| 
|(16x)---(16x)----------| 
|-10--------6-----------| 
|-10--------6-----------| 
|-8---------4-----------| 
|-----------------------| 
       (GUITAR 2) (2x) 
|------------3-------3--------4------4-----| 
|---------4-------4--------6-------6-------| 
|-----5--------5--------6-------6----------| 
|------------------------------------------| 
|------------------------------------------| 
|------------------------------------------| 
(Make sure that notes don't overlap) 

Verse (GUITAR 1) (2x)           (0:11) 

|----------------------------| 
|(16x)---(16x)---(16x)--(16x)| 
|-10------6------10------8---| 
|-10------6------10------8---| 
|-8-------4------8-------6---| 
|----------------------------| 

      (GUITAR 2) (1x)           (0:24) 
|------------3-------3--------4------4--------3------3--------------------| 
|---------4-------4--------6-------6-------4------4-------4--4------4--4--| 
|-----5--------5--------6-------6-------5------5-------3--------3---------| 
|-------------------------------------------------------------------------| 
|-------------------------------------------------------------------------| 
|-------------------------------------------------------------------------| 
- 
Chorus (GUITAR 1)              (0:37) 
|----------------------------| 
|(16x)--(16x)--(16x)--(16x)--| 
|----------------------6-----| 
|--6-----5------3------6-----| 
|--6-----6------3------4-----| 
|--4-----3------1------------| 

|---------------------------------| 
|(16x)--(16x)--(16x)--(8x)--(8x)--| 
|----------------------6----8-----| 
|--6-----5------3------6----8-----| 
|--6-----6------3------4----6-----| 
|--4-----3------1-----------------| 


Intro  (1:02) (without guitar 2) 
Verse  (1:14) 
Chorus (1:39) 



Bridge (GUITAR 2)  (2x)        (2:04) 
|------------3-------3--------4------4-----| 
|---------4-------4--------6-------6-------| 
|-----5--------5--------6-------6----------| 
|------------------------------------------| 
|------------------------------------------| 
|------------------------------------------| 

       (GUITAR 1)    (1x)     (2:10) 
|--------------------------------------------------------| 
|--------------------------------------------------------| 
|-10--------6--------------------------------------------| 
|-10--------6------figure out the strumming yourself-----| 
|-8---------4--------------------------------------------| 
|--------------------------------------------------------| 
   
(GUITAR 2)                    (2:16) 
|-------------------------------------------------------------| 
|-------5-----5-----8----6---5------5-----5-----6-----6----5--| 
|---6-6---6-6---6-6---6-6--6--6--6-6---6-6---6-6---6-6---6-6--| 
|-------------------------------------------------------------| 
|-------------------------------------------------------------| 
|-------------------------------------------------------------| 

|-------------------------------------------------------------| 
|-------5-----5-----8----6---5------8-----8-----8-----8----5--| 
|---6-6---6-6---6-6---6-6--6--6--6-6---6-6---6-6---6-6---6-6--| 
|-------------------------------------------------------------| 
|-------------------------------------------------------------| 
|-------------------------------------------------------------| 

[email protected] ...qm for fan de blink,plus pode add =D 

	  

Search Paypal
auto scroll beats size up size down change color hide chords drawings
tab show chords e-chords YouTube Clip e-chords hide all tabs e-chords go to top tab