Planet Shakers

Coolest guy in the whole world

Planet Shakers

tabs

by  JOE BETRUNKEN

save to print version add songbook text version e-mail correct tuner
chordsukulelecavacokeyboardtabbassdrumsharmonicaflute Guitar Pro
close

there isn't a video lesson for this song

chords

Coolest guy in the whole world

	  		Eb  C   Bb  G# 
--  --  --  -- 
 x   8   6   4 
 8   8   6   4 
 8   9   7   5 
 8  10   8   6 
 6  10   8   6 
 x   8   6   4 
 
 
------------------8-----------------------------8--6----------------- 
-------6-----5--8----5------6-----6-----6-----6---------------------- 
---/8-----8-------------6h7---6h7---6h7---6h7------------------------ 
--------------------------------------------------------------------- 
--------------------------------------------------------------------- 
--------------------------------------------------------------------- 
 
 
Eb      C        Bb          Bb 
etc.. 
 
 
I'm the coolest guy.. 
G#      Bb       Eb 
 
 
------------------8-----------------------------8--6----------------- 
-------6-----5--8----5------6-----6-----6-----6---------------------- 
---/8-----8-------------6h7---6h7---6h7---6h7------------------------ 
--------------------------------------------------------------------- 
--------------------------------------------------------------------- 
--------------------------------------------------------------------- 
 
---/11--11-11-11--8-8-8------5h6-6-5h6-6-5h6-6-5h6-6-6-6--------8---- 
---/11--11-11-11--8-8-8------5h6-6-5h6-6-5h6-6-5h6-6-6-6--------8---- 
--------------------------------------------------------------------- 
--------------------------------------------------------------------- 
--------------------------------------------------------------------- 
--------------------------------------------------------------------- 

		  

Full key step upFull key step up
Half key step upHalf key step up
Half key step downHalf key step down
Full key step downFull key step down
hide glossary

See also:

tabs Hillsong United - My God tabs Hillsong United - Never Let Me Go tabs Hillsong United - What The World tabs Hillsong United - Tell the world tabs Hillsong United - One Way tabs Hillsong United - Salvation is here
e-chords

Other versions:

tabs Planet Shakers - Coolest guy in the whole world
auto scroll beats size up size down change color hide chords drawings
tab show chords e-chords YouTube Clip e-chords hide all tabs e-chords go to top tab

share