Plain White T's

Hey There Delilah (ver. 2)

Plain White T's

tabs Beginner beginner

by  KEVICOLL

save to print version add songbook text version e-mail correct tuner
chordsukulelecavacokeyboardtabbassdrumsharmonicaflute Guitar Pro
close

there isn't a video lesson for this song

chords

Hey There Delilah (ver. 2)

	  		Originally in key of D, play with capo on 2d fret. 

Intro/Verse 
  C               Em                C               Em                      
e---------------------------------|---------------------------------|  
B---1---1---1---1---0---0---0---0-|---1---1---1---1---0---0---0---0-|  
G---0---0---0---0---0---0---0---0-|---0---0---0---0---0---0---0---0-|  
D-----------------2---2---2---2---|-----------------2---2---2---2---|  
A-3---3---3---3-------------------|-3---3---3---3-------------------|  
E---------------------------------|---------------------------------|  
  
  Am         (G)  F       G         Am              G       G5             
e---------------------------------|---------------------------------|  
B---1---1---1-------1---1---0---0-|---1---1---1---1---0---0---3---3-|  
G---2---2---2-------2---2---0---0-|---2---2---2---2---0---0---0---0-|  
D---------------------------------|---------------------------------|  
A-0---0---0-----------------------|-0---0---0---0-------------------|  
E-------------3---1---1---3---3---|-----------------3---3---3---3---|  

Chorus 
  C          (G)  Am          Am/B  C          (G)  Am          Am/B   
e---------------------------------|---------------------------------| 
B---1---1---1-------1---1---1---1-|---1---1---1-------1---1---1---1-| 
G---0---0---0-------2---2---2---2-|---0---0---0-------2---2---2---2-| 
D---------------------------------|---------------------------------| 
A-3---3---3-------0---0---0---2---|-3---3---3-------0---0---0---2---| 
E-------------3-------------------|-------------3-------------------| 

C          (G)  Am            Am/B  C          (G)  Am         (G)   
e---------------------------------|---------------------------------| 
B---1---1---1-------1---1---1---1-|---1---1---1-------1---1---1-----| 
G---0---0---0-------2---2---2---2-|---0---0---0-------2---2---2-----| 
D---------------------------------|---------------------------------| 
A-3---3---3-------0---0---0---2---|-3---3---3-------0---0---0-------| 
E-------------3-------------------|-------------3---------------3---| 

Bridge 
 F               G                  C          (B)  Am         (G) 
e---------------------------------|---------------------------------| 
B--1---1---1---1---0---0----0---0-|---1---1---1-------1---1---1-----| 
G--2---2---2---2---0---0----0---0-|---0---0---0-------2---2---2-----| 
D---------------------------------|---------------------------------| 
A---------------------------------|-3---3---3---2---0---0---0-------| 
E1---1---1---1---3---3----3---3---|-----------------------------3---| 

   F               G                  Am          
e---------------------------------|---------------------------------| 
B--1---1---1---1---0---0----0---0-|---1---1---1---1---1---1---1---1-| 
G--2---2---2---2---0---0----0---0-|---2---2---2---2---2---2---2---2-| 
D---------------------------------|---------------------------------| 
A---------------------------------|-0---0---0---0---0---0---0---0---| 
E1---1---1---1---3---3----3---3---|---------------------------------| 

  G                          G5            
|----------------------------------|----------------------------------| 
|---0---0---0---0----0---0---0---0-|---3---3---3---3----3---3---3---3-| 
|---0---0---0---0----0---0---0---0-|---0---0---0---0----0---0---0---0-| 
|----------------------------------|----------------------------------| 
|----------------------------------|----------------------------------| 
|-3---3---3---3----3---3---3---3---|-3---3---3---3----3---3---3---3---| 


		  

Full key step upFull key step up
Half key step upHalf key step up
Half key step downHalf key step down
Full key step downFull key step down
hide glossary

See also:

tabs OMD - Enola Gay tabs Santana e Rob Thomas - Smooth tabs Miley Cyrus - Butterfly Fly Away tabs Eric Johnson - Cliffs of Dover tabs Eric Johnson - SRV tabs India Arie - Get it together
e-chords

Other versions:

tabs Plain White T's - Hey there delilah tabs Plain White T's - Hey There Delilah (ver. 2)
auto scroll beats size up size down change color hide chords drawings
tab show chords e-chords YouTube Clip e-chords hide all tabs e-chords go to top tab

share