Plague Vendors

Black Sap Scriptures

Plague Vendors

tabs

by  CARLLUZ

save to print version add songbook text version e-mail correct tuner
chordsukulelecavacokeyboardtabbassdrumsharmonicaflute Guitar Pro
close

there isn't a video lesson for this song

chords

Black Sap Scriptures

	  		

Tuning: 

e|---------------------------------------------------------------------------| 
B|---------------------------------------------------------------------------| 
G|-33333333------------------------------------------------------------------| 
D|-44444444------------------------------------------------------------------| 
A|-44444444------------------------------------------------------------------| 
E|-22222222------------------------------------------------------------------| 

e|---------------------------------------------------------------------------| 
B|---------------------------------------------------------------------------| 
G|--9-/3--333333-------------------------------------------------------------| 
D|--10/4--444444--x3------------2222--5555-----------------------------------|   X4 
A|--10/4--444444----------------2222--5555-----------------------------------| 
E|--8/-2--222222----------------0000--3333-----------------------------------| 

e|--------------------------------------------------------------------------------| 
B|-5-7b8-7777-7-5-----------------------------------------------------------------| 
G|----------------666-6-3-333-----------------------------------------------------| 
D|------------------------------555444--------------------------------------------| X3 
A|--------------------------------------------------------------------------------| 
E|--------------------------------------------------------------------------------| 

e|---------------------------------------------------------------------------| 
B|--------5-7b8888-----------------------------------------------------------| 
G|---------------------------------------------------------------------------| 
D|---------------------------------------------------------------------------| 
A|---------------------------------------------------------------------------| 
E|---------------------------------------------------------------------------| 

************************************ 

| /   slide up 
| \   slide down 
| h   hammer-on 
| p   pull-off 
| ~   vibrato 
| +   harmonic 
| x   Mute note 
| b   Bend 
| pb  Pre-bend 
| br  Bend release 
| pbr Pre-bend release 
| brb Bend release bend 

************************************ 
		  

See also:

tabs Deep Purple - Burn tabs Deep Purple - No No No tabs Deep Purple - Smoke on the water(ver. 2) tabs Deep Purple - Time To Kill tabs Deep Purple - Smoke on The Water (ver.3) tabs Deep Purple - Fireball
e-chords

Other versions:

tabs Plague Vendors - Black Sap Scriptures
auto scroll beats size up size down change color hide chords drawings
tab show chords e-chords YouTube Clip e-chords hide all tabs e-chords go to top tab

share