Pity Sex

Flower Girl

Pity Sex

tabs

by  BOMBAXXX

save to print version add songbook text version e-mail correct tuner
chordsukulelecavacokeyboardtabbassdrumsharmonicaflute Guitar Pro
close

there isn't a video lesson for this song

chords

Flower Girl

	  		

bass intro 

clean 
e|---------------------------------------------------------------------------| 
B|---------------------------------------------------------------------------| 
G|--6-6666-6-6666-4-4444-6-6666b-6-6666-6-6666-4-4444-6-6666-----------------| 
D|--4-4444-4-4444-2-2222-4-4444--4-4444-4-4444-2-2222-4-4444-----------------| 
A|--4-4444-4-4444-2-2222-4-4444--4-4444-4-4444-2-2222-4-4444-----------------| 
D|---------4-4444-2-2222----------------4-4444-2-2222-4-4444-----------------| 

(I've been looking in the dark...) 
e|---------------------------------------------------------------------------| 
B|---------------------------------------------------------------------------| 
G|---6---6---6---6---6---6---6---6---6---4---4---4---------------------------| 
D|---------------------------------------------------------------------------|x4 
A|---------------------------------------------------------------------------| 
D|-9---9---9---7---7---7---0---0---0---0---0---0-----------------------------| 

fuzz 
(Be my flower girl...) 
e|---------------------------------------------------------------------------| 
B|---------------------------------------------------------------------------| 
G|--4-4444--6-6666--6-6666-7p6-6666------------------------------------------| 
D|--2-2222--7-7777--0-0000-0---0000------------------------------------------|x4 
A|--2-2222--7-7777--0-0000-0---0000------------------------------------------| 
D|--2-2222--7-7777--0-0000-0---0000------------------------------------------| 

bass re-intro 
clean 
e|---------------------------------------------------------------------------| 
B|---------------------------------------------------------------------------| 
G|--6-6666-6-6666-4-4444-6-6666b-6-6666-6-6666-4-4444-6-6666-----------------| 
D|--4-4444-4-4444-2-2222-4-4444--4-4444-4-4444-2-2222-4-4444-----------------| 
A|--4-4444-4-4444-2-2222-4-4444--4-4444-4-4444-2-2222-4-4444-----------------| 
D|---------4-4444-2-2222----------------4-4444-2-2222-4-4444-----------------| 

(I've been wasting all my time...) 
e|---------------------------------------------------------------------------| 
B|---------------------------------------------------------------------------| 
G|---6---6---6---6---6---6---6---6---6---4---4---4---------------------------| 
D|---------------------------------------------------------------------------|x4 
A|---------------------------------------------------------------------------| 
D|-9---9---9---7---7---7---0---0---0---0---0---0-----------------------------| 

fuzz 
(Be my flower girl...) 
e|---------------------------------------------------------------------------| 
B|---------------------------------------------------------------------------| 
G|--4-4444--6-6666--6-6666-7p6-6666------------------------------------------| 
D|--2-2222--7-7777--0-0000-0---0000------------------------------------------|x4 
A|--2-2222--7-7777--0-0000-0---0000------------------------------------------| 
D|--2-2222--7-7777--0-0000-0---0000------------------------------------------| 

e|---------------------------------------------------------------------------| 
B|---------------------------------------------------------------------------| 
G|-7\6~6~~7\6~6~~------------7\6~6~~7\6~6~~----------------------------------| 
D|-0------0------7/9-9-9\7-7-0------0------7/9-9-9\7-7-----------------------| 
A|---------------------------------------------------------------------------| 
D|---------------------------------------------------------------------------| 

clean 
(I'm not ready to be happy...) 
e|---------------------------------------------------------------------------| 
B|---------------------------------------------------------------------------| 
G|-6-6-6-6-6-6-6-6-6-6-6-6-6-6-6-6-6-6-6-6-6-4-4-4-4-4-4-4-------------------| 
D|-7-7-7-7-7-7-0-0-0-0-0-0-0-0-0-0-0-0-0-0-0-0-0-0-0-0-0-0-------------------|x4 
A|-0-0-0-0-0-0-0-0-0-0-0-0-0-0-0-0-0-0-0-0-0-0-0-0-0-0-0-0-------------------| 
D|---------------------------------------------------------------------------| 

fuzz 
(Be my flower girl...) 
e|---------------------------------------------------------------------------| 
B|---------------------------------------------------------------------------| 
G|-6-6-6-6-6-6-6-6-6-6-6-6-6-6-6-6-6-6-6-6-6-6-6-6-6-------------------------| 
D|-9-9-9-9-9-9-7-7-7-7-7-7-7-7-7-7-7-7-7-7-7-7-7-7-7-------------------------| 
A|-9-9-9-9-9-9-7-7-7-7-7-7-0-0-0-0-0-0-0-0-0-0-0-0-0-------------------------| 
D|-9-9-9-9-9-9-7-7-7-7-7-7-0-0-0-0-0-0-0-0-0-0-0-0-0-------------------------| 

solo 
e|---------------------------------------------------------------------------| 
B|--------------------------------------2----2-------------------------------| 
G|-7/9-9-9\6-6-6-6\4-4-2/4-2-2/6-4-2------2----2-----------------------------|x2 
D|-----------------------------------0-0----0----0----------------------------| 
A|---------------------------------------------------------------------------| 
D|---------------------------------------------------------------------------| 

e|---------------------------------------------------------------------------| 
B|---------------------------------------------------------------------------| 
G|-/6~6~6~6~6~6~/9~9~9~9~9~9~/11~11~11~11~11~11~11111111-11\7-7777-7\6-------| 
D|---------------------------------------------------------------------------| 
A|---------------------------------------------------------------------------| 
D|---------------------------------------------------------------------------| 

e|---------------------------------------------------------------------------| 
B|---------------------------------------------------------------------------| 
G|-6-6/9\6-6-6-6-6-6-6-2/4-2/6-4-2-2~~~~-------------------------------------| 
D|---------------------------------0~~~~~------------------------------------| 
A|---------------------------------------------------------------------------| 
D|---------------------------------------------------------------------------| 


************************************ 

| /   slide up 
| \   slide down 
| h   hammer-on 
| p   pull-off 
| ~   vibrato 
| +   harmonic 
| x   Mute note 
| b   Bend 
| pb  Pre-bend 
| br  Bend release 
| pbr Pre-bend release 
| brb Bend release bend 

************************************ 
		  

auto scroll beats size up size down change color hide chords drawings
tab show chords e-chords YouTube Clip e-chords hide all tabs e-chords go to top tab

share