Pity Sex

Drown Me Out

Pity Sex

tabs

by  ANG-LETRA

save to print version add songbook text version e-mail correct tuner
chordsukulelecavacokeyboardtabbassdrumsharmonicaflute Guitar Pro
close

there isn't a video lesson for this song

chords

Drown Me Out

	  		Bass Intro (0:00-0:07) 
G|-------------------------| 
D|-0-0-0-------------------| 
A|-------0-0-0-------------| 
E|-------------2-2-2-2-2-2-|x2 

Intro (Guitar 1) (0:08) 
e|----------------------------| 
B|----------------------------| 
G|-7-7-7----------------------| 
D|-7-7-7--7-7-7--4-4-4-4-4-4--| 
A|-5-5-5--7-7-7--4-4-4-4-4-4--| 
E|-5-5-5--5-5-5--2-2-2-2-2-2--|x6 

Verse (Guitar 2) (0:17) 
e|----------------|----------------|-------| 
B|----------------|----------------|-------| 
G|-6-7-6-------6~-|-6-7-6----------|-----6-| 
D|-------9-7-7----|-------9-7-7-7~-|---7---| 
A|----------------|----------------|-9-----| 
E|----------------|----------------|-------|x1 

e|----------------|----------------| 
B|----------------|----------------| 
G|-6-7-6-------6~-|-6-7-6----------| 
D|-------9-7-7----|-------9-7-7-7~-| 
A|----------------|----------------| 
E|----------------|----------------|x1 

Chorus (Guitar 1) (0:34) 
e|-----------------------| 
B|-----------------------| 
G|-----------------------| 
D|-9-9-9-\11/7-7-7-7-7-7-| 
A|-9-9-9-\11/7-7-7-7-7-7-| 
E|-7-7-7-\9/5-5-5-5-5-5--|x4 

Chorus (Guitar 2) (1:16) 
e|------------------|----------------| 
B|------------------|----------------| 
G|------------------|-6-7-6----------| 
D|---------------7~-|-------9-7-7-7~-| 
A|-9-(9)-(9)-7-9----|----------------| 
E|------------------|----------------|x2 

Verse (Guitar 1) (0:51) 
e|----------------------------| 
B|----------------------------| 
G|-7-7-7----------------------| 
D|-7-7-7--7-7-7--4-4-4-4-4-4--| 
A|-5-5-5--7-7-7--4-4-4-4-4-4--| 
E|-5-5-5--5-5-5--2-2-2-2-2-2--|x6 

Verse (Guitar 2) (0:59) 
e|----------------|----------------|-------| 
B|----------------|----------------|-------| 
G|-6-7-6-------6~-|-6-7-6----------|-----6-| 
D|-------9-7-7----|-------9-7-7-7~-|---7---| 
A|----------------|----------------|-9-----| 
E|----------------|----------------|-------|x1 

e|----------------|----------------| 
B|----------------|----------------| 
G|-6-7-6-------6~-|-6-7-6----------| 
D|-------9-7-7----|-------9-7-7-7~-| 
A|----------------|----------------| 
E|----------------|----------------|x1 

Chorus (Guitar 1) (1:16) 
e|-----------------------| 
B|-----------------------| 
G|-----------------------| 
D|-9-9-9-\11/7-7-7-7-7-7-| 
A|-9-9-9-\11/7-7-7-7-7-7-| 
E|-7-7-7-\9 /5-5-5-5-5-5-|x4 

Chorus (Guitar 2) (1:16) 
e|------------------|----------------| 
B|------------------|----------------| 
G|------------------|-6-7-6----------| 
D|---------------7~-|-------9-7-7-7~-| 
A|-9-(9)-(9)-7-9----|----------------| 
E|------------------|----------------|x2 

Bridge (Guitar 1) (1:32) 
e|---------------------------|-------------------------| 
B|---------------------------|-------------------------| 
G|---------------------------|-------------------------| 
D|-6-6-6-6-6-9-9-9-9-7-7-6---|-9-9-9-9-9-9-7-7-7-7-7-7-| 
A|-------------------------7-|-9-9-9-9-9-9-7-7-7-7-7-7-| 
E|---------------------------|-7-7-7-7-7-7-5-5-5-5-5-5-|x4 

e|-------------------------| 
B|-------------------------| 
G|-------------------------| 
D|-9-9-9-9-9-9-7-7-7-7-7-7-| 
A|-9-9-9-9-9-9-7-7-7-7-7-7-| 
E|-7-7-7-7-7-7-5-5-5-5-5-5-| 

Bridge (Guitar 2) (1:32) 
e|---------------------------------|-------------------------| 
B|---------------------------------|-------------------------| 
G|---------------------------------|-------------------------| 
D|-7-7-7-7-7-7-7-7-6-6-6-6-6-6-6h7-|-9-9-9-9-9-9-7-7-7-7-7-7-| 
A|---------------------------------|-9-9-9-9-9-9-7-7-7-7-7-7-| 
E|---------------------------------|-7-7-7-7-7-7-5-5-5-5-5-5-|x2 

e|---------------------------------|-------------------------| 
B|---------------------------------|-------------------------| 
G|---------------------------------|-------------------------| 
D|-7-7-7-7-7-7-7-7-9-9-9-9-9-7-6-7-|-9-9-9-9-9-9-7-7-7-7-7-7-| 
A|---------------------------------|-9-9-9-9-9-9-7-7-7-7-7-7-| 
E|---------------------------------|-7-7-7-7-7-7-5-5-5-5-5-5-|x1 

e|---------------------------------|-------------------------| 
B|---------------------------------|-------------------------| 
G|---------------------------------|-------------------------| 
D|-7-7-7-7-7-7-7-7-6-6-6-6-6-6-6h7-|-9-9-9-9-9-9-7-7-7-7-7-7-| 
A|---------------------------------|-9-9-9-9-9-9-7-7-7-7-7-7-| 
E|---------------------------------|-7-7-7-7-7-7-5-5-5-5-5-5-|x1 

e|-------------------------| 
B|-------------------------| 
G|-------------------------| 
D|-9-9-9-9-9-9-7-7-7-7-7-7-| 
A|-9-9-9-9-9-9-7-7-7-7-7-7-| 
E|-7-7-7-7-7-7-5-5-5-5-5-5-| 

Solo (Guitar 1) (2:09) 
e|-------------------------------------------------------------------| 
B|-------------------------------------------------------------------| 
G|-------------------------------------------------------------------| 
D|-7-7-7-7-7-7-7-7--9-9-9-9-9-9-9-9--4-4-4-4-4-4-4-4-4-4-4-4-4-4-4-4-| 
A|-7-7-7-7-7-7-7-7--9-9-9-9-9-9-9-9--4-4-4-4-4-4-4-4-4-4-4-4-4-4-4-4-| 
E|-5-5-5-5-5-5-5-5--7-7-7-7-7-7-7-7--2-2-2-2-2-2-2-2-2-2-2-2-2-2-2-4-|x2 

Solo (Guitar 2) (2:09) 
e|----------------------|------------------------|---------------------------------------| 
B|----------------------|------------------------|---------------------------------------| 
G|----------------------|------------------------|---------------------------------------| 
D|-6~----------6-6------|-6~---------6-6~-6h7-9~-|-6~---------6-6------------------------| 
A|----4~-7-7~------4-7~-|----4~-7-7~-------------|----4~-7-7~-----4-7-9-7-5-4-4-4-4h5p4~-| 
E|----------------------|------------------------|---------------------------------------| 

Verse (Guitar 1&2) (2:26) 
e|----------------------------| 
B|----------------------------| 
G|-7-7-7----------------------| 
D|-7-7-7--7-7-7--4-4-4-4-4-4--| 
A|-5-5-5--7-7-7--4-4-4-4-4-4--| 
E|-5-5-5--5-5-5--2-2-2-2-2-2--|x4 

Outro (Guitar 1) (2:43) 
e|----------------------------| 
B|----------------------------| 
G|-7-7-7----------------------| 
D|-7-7-7--7-7-7--4-4-4-4-4-4--| 
A|-5-5-5--7-7-7--4-4-4-4-4-4--| 
E|--------5-5-5--2-2-2-2-2-2--|x4 

Outro (Guitar 2) (2:43) 
e|---------------------------|----------------|-------| 
B|---------------------------|----------------|-------| 
G|-6-7-6-------6~-9-9-9-7-6~-|-6-7-6----------|-----6-| 
D|-------9-7-7---------------|-------9-7-7-7~-|---7---| 
A|---------------------------|----------------|-9-----| 
E|---------------------------|----------------|-------|x1 

e|---------------------------|----------------| 
B|---------------------------|----------------| 
G|-6-7-6-------6~-9-9-9-7-6~-|-6-7-6----------| 
D|-------9-7-7---------------|-------9-7-7-7~-| 
A|---------------------------|----------------| 
E|---------------------------|----------------|x1  
		  

auto scroll beats size up size down change color hide chords drawings
tab show chords e-chords YouTube Clip e-chords hide all tabs e-chords go to top tab

share