Pino Daniele

Quando

Pino Daniele

tabs

by  TERCMORAES

save to print version add songbook text version e-mail correct tuner
chordsukulelecavacokeyboardtabbassdrumsharmonicaflute Guitar Pro
close

there isn't a video lesson for this song

chords

Quando

Year: 2006 - Album: Tutto Daniele

Key:  E More
Quando Key BB
Quando Key CC
Quando Key C#C#
Quando Key DD(one step down)
Quando Key D#D#(half step down)
Quando Key EE(original key)
Quando Key FF(half step up)
Quando Key F#F#(one step up)
Quando Key GG
Quando Key G#G#
Quando Key AA
Quando Key A#A#
	  		
             Esus4      Em                  Em9 
e|-------2--|--5--5--5--3--|----------3----------------------2-| 
B|----5-----|--------------|------0---------3-----3-------5----| 
G|-4--------|--5--5--5--4--|---4----------------0------4-------| 
D|----------|--------------|------------------4----------------| 
A|----------|--------------|-----------------------------------| 
E|----------|--0-----------|----------------0------------------| 

  Esus4      Em                     Em9 
e|---5--5--5--3--|-------3-----------------------------------2--| 
B|---------------|-----0--------------3-----3-------------5-----| 
G|---5--5--5--4--|---4--------------------0------------4--------| 
D|---------------|----------------------4-----------------------| 
A|---------------|----------------------------------------------| 
E|---0-----------|--------------------0-------------------------| 
                                                     Tu dimmi 

   Esus4   Em                  Am7                     D9  D9b/A 
e|---5--5--3---------3------|------------3--------------0------| 
B|----------------0----0----|---------1-----1-----------1---4--| 
G|---5--5--4----4--------4--|------0-----------0--------2---5--| 
D|--------------------------|---------------------------0---4--| 
A|--------------------------|---0------------------------------| 
E|---0-----0----------------|-------------------------------5--| 
1. quando quando            dove sono i tuoi occhi e la tua 
2. quando quando            non guardarmi adesso amore sono 

   G7+13                        A9/F#          B7 
e|-----------------------------|----------------------------2---| 
B|---5--------5---------5------|--0--------------1-------5------| 
G|------4--------4---------4---|--2-----2--------2----4---------| 
D|---------4-------------------|--2--2-----------1--------------| 
A|-----------------------------|-----------------2--------------| 
E|---3---------------3---------|--2-----------------------------| 
1. bocca      forse in Africa  che importa           Tu dimmi 
2. stanco     perchè penso al futuro                 Tu dimmi 

  Esus4   Em                 A-7                 D/F# 
e|---5--5--3-------3-------|-----------3------------------------| 
B|---------------0---0-----|--------1--------------3--------3---| 
G|---5--5--4---4-------4---|-----0-----------------2-----2------| 
D|-------------------------|--------------------------0---------| 
A|-------------------------|--0---------------------------------| 
E|---0-----0---------------|-----------------------2------------| 
1. quando quando             dove sono le tue mani ed il tuo 
2. quando quando             siamo angeli che cercano il 

 Dm/F              E7              Am7 
e|--------------------------------|-----------------------------| 
B|-3--------3-------3--------3----|-1-------1-------1-------1---| 
G|-2----2-----------1----1--------|-----0---------------0-------| 
D|---0----------------0-----------|---2---------------2---------| 
A|--------------------------------|-0---------------0-----------| 
E|-1----------------0-------------|-----------------------------| 
1. naso      verso un giorno disperato         ma io ho sete 
2. sorriso   non nascondere il tuo viso        perchè ho sete 
                                   _____ 
  Cm7                              |1.  G9         G7 
e|--------------6-------6----------||----5-----------3-------7--| 
B|--4---3---4---4-----------4------||----3------3----3-----3----| 
G|--3---3---3---3---3-----------3--||----4---4-------4---4------| 
D|--5---5---5---5------------------||---------------------------| 
A|--3-----------3------------------||---------------------------| 
E|---------------------------------||----3-----------3----------| 
1. ho sete ancora 
2. ho sete ancora 
                                   _____ 
   G9            G7              | 2. G9           G7 
e|---5------------3-----------2---||---5-------------3--------7-| 
B|---3-------3----3-------5-------||---3-------3-----3-----3----| 
G|---4---4--------4---4----------*||---4---4---------4---4------| 
D|-------------------------------*||----------------------------| 
A|--------------------------------||----------------------------| 
E|---3------------3---------------||---3-------------3----------| 
                    Tu dimmi              ancora 

  G9           G7                   C              C/B 
e|--5-----------3--------------||----3--------3-----3--------3--| 
B|--3-------3---3--------------||----------3--------------3-----| 
G|--4---4-------4--------------||-------0--------------0--------| 
D|-----------------------------||-------------------------------| 
A|-----------------------------||----3--------------2-----------| 
E|--3-----------3--------------||-------------------------------| 
                             E vivrò                si vivrò 

    Am7           D/F#            Em9 
e|---0--------0------------------|------------------------------| 
B|---------1-------3---------3---|-----------3-----3--------3---| 
G|------0-----------------2------|--------0--------------0------| 
D|---------------------0---------|-----4--------------4---------| 
A|---0---------------------------|------------------------------| 
E|-----------------2-------------|--0--------------0------------| 
       tutto il giorno per     vederti andar via 

  Dm7           G6          C         C#dim F#m7 Bm7     E   E7 
e|-1-------1-----0--------0|-3--------3--------|-----------0------| 
B|-------1-------------0---|-------1-----5--5--|--3-----3--0--3---| 
G|----2-------------0------|----0--------4--3--|--2---2----1--1---| 
D|-0-----------------------|-------------5-----|--4-4---------2---| 
A|-------------------------|-3-----------4-----|--2---------------| 
E|---------------3---------|----------------2--|-----------0--0---| 
fra i ricordi e questa strana pazzia  e il paradiso, che non esiste 

  Am7         D/F#         G9       G7      G9       G7 
e|-0----------------------|-5---------3--7-|-5--------3-------| 
B|----------1--3--------3-|-3-----3---3----|-3-----3--3-------| 
G|-------0-----------2----|-4--4------4----|-4--4-----4---0---| 
D|----2-----------0-------|----------------|------------------| 
A|-0----------------------|----------------|------------------| 
E|-------------2----------|-3---------3----|-3--------3---3---| 
  chi vuole un figlio non insiste 


             Esus4    Em           Am7                D9  D9b/A 
e|-------2-||-5-5--3--------3-----|----------3----------0------| 
B|----5----||------------0----0---|-------1-----1-------1----4-| 
G|-4-------||-5-5--4---4--------4-|----0-----------0----2----5-| 
D|---------||---------------------|---------------------0----4-| 
A|---------||---------------------|-0--------------------------| 
E|---------||-0----0--------------|--------------------------5-| 
  Tu dimmi  quando quando            ho bisogno di te almeno un 

   G7+13                        D/F#            B7 
e|------------0----------------|----------------------------2---| 
B|---------------3-------------|----------2------4-------5------| 
G|---4-----4---------4-----4---|--2-----2--------2----4---------| 
D|---4--4---------------4------|--2--2-----------4--------------| 
A|-----------------------------|-----------------2--------------| 
E|---3---------------3---------|--2-----------------------------| 
   ora        per dirti che ti amo ancora            Tu dimmi 

  Esus4   Em                Am7                  D/F# 
e|---5-5-5-3-------3-------|-----------3------------------------| 
B|---------------0---0-----|--------1--------------3--------3---| 
G|---5-5-5-4---4-------4---|-----0-----------------2-----2------| 
D|-------------------------|--------------------------0---------| 
A|-------------------------|--0---------------------------------| 
E|---0-----0---------------|-----------------------2------------| 
   quando quando             lo sai che non ti avrò e sul tuo 

  Dm/F            E7              Am7 
e|--------------------------------|-----------------------------| 
B|-3--------3-------3--------3----|-1-------1-------1-------1---| 
G|-2----2-----------1----1--------|-----0---------------0-------| 
D|---0----------------0-----------|---2---------------2---------| 
A|--------------------------------|-0---------------0-----------| 
E|-1----------------0------.------|-----------------------------| 
  viso      sta per mascere un sorriso        ed io ho sete 

  Cm7                                  G9           G7 
e|--------------6-------6-----------|----5-----------3-------7--| 
B|--4---3---4---4-----------4-------|----3------3----3-----3----| 
G|--3---3---3---3---3-----------3---|----4---4-------4---4------| 
D|--5---5---5-----------------------|---------------------------| 
A|--3-----------3-------------------|---------------------------| 
E|----------------------------------|----3-----------3----------| 
   ho sete ancora                     ancora 

   G9          G7                  C              C/B 
e|--5-----------3-------3-----||----3--------3-----3--------3---| 
B|--3-------3---3-------3-----||----------3--------------3------| 
G|--4---4-------4-------4-----||-------0--------------0---------| 
D|----------------------------||--------------------------------| 
A|----------------------------||----3--------------2------------| 
E|--3-----------3----3--------||--------------------------------| 
                            E vivrò                si vivrò 
    Am7          D/F#              Em 
e|---0--------0------------------|------------------------------| 
B|---------1-------3---------3---|-----------3-----3---------3--| 
G|------0-----------------2------|--------0---------------0-----| 
D|---------------------0---------|-----4---------------4--------| 
A|---0---------------------------|------------------------------| 
E|-----------------2-------------|--0--------------0------------| 
       tutto il giorno per     vederti andar via 

  Dm7           G6          C       C#dim F#m7  Bm7      E   E7 
e|-1--------1----0-------0-|-3------3----------|-----------0------| 
B|-1-----1-------------0---|------1------5--5--|--3-----3--0--3---| 
G|----2--------------0-----|----0--------4--3--|--2----2---1--1---| 
D|-0-----------------------|-------------5--2--|--4--4--------2---| 
A|-------------------------|-3-----------4-----|--2---------------| 
E|---------------3---------|----------------2--|-----------0--0---| 
fra i ricordi e questa strana pazzia  e il paradiso, che forse esiste 

  Am7         D/F#          G9       G7       G9        G7 
e|-------------------------|--5--------3----7|--5--------3------| 
B|-1--------1--3--------3--|--3-----3--3-----|--3-----3--3------| 
G|-------0-----------2-----|--4--4-----4--4--|--4--4-----4------| 
D|----2-----------0--------|-----------------|------------------| 
A|-0-----------------------|-----------------|------------------| 
E|-------------2-----------|--3--------3-----|--3--------3------| 
 chi vuole un figlio non insiste 

               E4       Em                 Am7          D9 D9b/A 

e|--------2-||--5--5--5--3--------2--3--5--|7-7--7--------0-----| 
B|-----5----||--------------4--5-----------|--------------1--4--| 
G|--4-------||--5--5--5--4-----------------|--------------2--5--| 
D|----------||-----------------------------|--------------0--4--| 
A|----------||-----------------------------|-----------------5--| 
E|----------||-----------------------------|--------------------| 

  G7+                         D/F#               B7 
e|----------------------------------|---------------------5/8---| 
B|--5------5--------5------------3--|-----------------4-7-------| 
G|----4-------4--------4---------2--|--------------5------------| 
D|------4---------------------------|--------4--7---------------| 
A|----------------------------------|-----6---------------------| 
E|--3-------------3--------------2--|--7------------------------| 

  E4           Em              Am7             D/F# 
e|--8---8---8---7---7---8---|-10-10-8-8--7--7-------------7-8-8-| 
B|--------------------------|-----------------10-10-10-10-------| 
G|--9---9---9---7-----------|-----------------------------------| 
D|--------------------------|-----------------------------------| 
A|--------------------------|-----------------------------------| 
E|--------------------------|-----------------------------------| 

 Dm/F          E7          Am7 
e|---8--8--8--8--7--------|---------7--8--7h8p7--------7p5------| 
B|------------------10--9-|--9--10---------------10----5--------| 
G|------------------------|----------------------------5--------| 
D|------------------------|----------------------------5--------| 
A|------------------------|-------------------------------------| 
E|------------------------|-------------------------------------| 

   Cm7 
e|---10p8-------------------------------------------------------| 
B|---8-----8----------------------------------------------------| 
G|---8-------8--------------------------------------------------| 
D|---8---------10-/12---10---5----------------------------------| 
A|--------------------------------6---5----3--------------------| 
E|----------------------------------------------4---------------| 

  G6           G(9)     Gadd9 
e|-5------------3------------7--|--5----------3---------------2-| 
B|-3-----3------3-------3-------|--3-----3----3------------5----| 
G|-4--4---------4----4----------|--4--4-------4---------4-------| 
D|------------------------------|-------------------------------| 
A|------------------------------|-------------------------------| 
E|-3------------3---------------|--3----------3-----------------| 
                                                     Tu dimmi 
  Esus4   Em          D/E       E7 
e|--5--5-5--3-----3--|--2--2--2--0----------0-----*12-|| 
B|-------------------|-----------0-----0h2-----2------|| 
G|--5--5-5--4--------|--2--2--2--1--------------------|| 
D|-------------------|--------------2-----------------|| 
A|-------------------|--------------------------------|| 
E|--0-------0--------|--0--------0--------------------|| 
 quando quando 
		  

Full key step upFull key step up
Half key step upHalf key step up
Half key step downHalf key step down
Full key step downFull key step down
hide glossary

See also:

tabs Pino Daniele - Quando tabs Pino Daniele - Allora Sì
e-chords

Other versions:

tabs Pino Daniele - Quando tabs Wonkavision - Quando 16 tabs Cássia Eller - Quando a Maré Encher tabs Nação Zumbi - Quando A Maré Encher tabs Teodoro e Sampaio - Quando a Saudade Aperta tabs Diante do Trono - Quando a Tempestade Vem
auto scroll beats size up size down change color hide chords drawings
tab show chords e-chords YouTube Clip e-chords hide all tabs e-chords go to top tab

share