Pink Floyd

home > Pink Floyd

Pigs Tab

Pink Floyd

Difficulty: ExpertExpert

tuner correct add songbook print version text version save to e-mail
chordsukulelecavacokeyboardtabbassdrumsharmonicsflute Guitar Pro
chords

Pigs

Year: 1977 - Album: Animals

  		 
  Em            C             G             D    Em        C 
e|--0--X--X-----0---X--X------0---X---X-----2----0---X-----0---X---X------ 
B|--0--0--X-----0---0--X------0---0---X-----3----0---0-----1---1---X------ 
G|--0--X--0-----0---X--0------0---X---0--X--2----0---X-----0---X---0------ 
D|--2--2--2-----2---2--2------0---0---0--X-------2---2-----2---2---2------ 
A|--2--X--2-----3---X--3------2---X---2----------2---2-----3---X---3------ 
E|--0--0--X-----3---3--X------3---3---X----------0---0-----0---0---X------ 
Em                C                  G    Em 
Big man, pig man, ha ha, charade you are 
                          C                 G D Em 
You well heel big whell, ha ha charade you are 
     C                         G 
And when your hand is on your heart 
    
 
  A5 
e|----------------------------------------------------------------------- 
B|----------------------------------------------------------------------- 
G|--------------2--X--X----7B8--5~~~~~~----------------2------X----X----- 
D|--------------2--X--X----7B8--5~~~~~~----------------2------X----X----- 
A|--------------0---------------------------0----------0------X---------- 
E|--3--2--3--4--------------------------------0--2-3--------------------- 
A5 
You're nearly a good laugh, almost a joker. 
A5 
With your head down the pigpin saying keep on digging 
A5 
Pig stain on your fat chin 
A5 
What do you hope to find down in the pig mine? 
A5 
You're nearly a laugh, you're nearly a laugh 
Em 
But you really a cry_______________ 
Em 
Bus stop rat bag, ha ha charade you are 
Em 
You ***ed up old hag, ha ha charade you are 
Em 
You radiate cold shafts of broken glass 
A5 
You're nearly a good laugh, almost worth a quick grin 
A5 
You like the feel of steel, hot stuff when a hat pin 
A5 
And good fun with a hand gun 
Em 
You're nearly a laugh, you're nearly a laugh 
Em 
But you're really a cry_________________ 
 
                                                     REPEAT            
e|--------------------------------------------------------------------------------- 
B|----------8--8--8---7--------8--8--8---7-----------5--5--5---3---------5--5--5---3 
G|----------7--7--7---7--------7--7--7---7-----------5--5--5---3---------5--5--5---3 
D|----------9--9--9---7--------9--9--9---7-----------5--5--5---3---------5--5--5---3 
A|---------------------------------------------------------------------------------- 
E|---0---------------------0---------------------3------------------3--------------- 
 
Em 
Hey you, Whitehouse, ha ha charade you are 
A5 
You house proud town mouse, ha ha charade you are 
A5 
You're trying to keep our feeling off the street 
A5 
You're nearly a real treat, all tight lips and cold feet 
 
And do you feel abused? 
 
Em 
You gotta stem the evil tide and keep it all on the inside 
Em 
Mary, you're nearly a treat, mary, you're nearly a treat 
Em 
But you're really a cry_______________________ 
 
Solo  ~~~~~~~~~~                                      ~~~~~~~~~ 
|-12------------12----12----12---------12-------12--------------12--12-12--| 
|-15b-----------15b---15b---15b--------15b----------15pb--------15b----15b-| 
|--------------------------------------------------------------------------| 
|--------------------------------------------------------------------------| 
|--------------------------------------------------------------------------| 
|--------------------------------------------------------------------------| 
           ~~~~                           ~~~~~~~~                     
~~~~~ 
|-12-12---12----14---14---14---14-------15------------15b--12--15/17--17b-| 
|----15b--15b---17b--17b--17b--17---12------------12-------12-------------| 
|--------------------------------------------------------------------------| 
|--------------------------------------------------------------------------| 
|--------------------------------------------------------------------------| 
|--------------------------------------------------------------------------| 
         1 1/2 
|-17/19-19b-----19--17--1715--17/19--17--15--14--15--14------14-----------| 
|---------------------------------------------------------17-----17--15----| 
|--------------------------------------------------------------------------| 
|--------------------------------------------------------------------------| 
|--------------------------------------------------------------------------| 
|--------------------------------------------------------------------------| 
                                     1/2~~~~~~~        1/2              
~~~~ 
|-----------------12-------------------------------------------------------| 
|-15--14-1312-15----12h13p12-----12---------------------------------------| 
|------------------------------14---14b--------12--14--14pb-p12---14-12----| 
|---------------------------------------------------------------14------14-| 
|--------------------------------------------------------------------------| 
|--------------------------------------------------------------------------| 
          1/2~~~~ 1/2                   ~~~~~~                 ~~~~ 
|--------------------------------------------------------------------------| 
|------15-15-----15b----15----------12-----------------------------0-----0-| 
|-x-x-----14b----14b----14p12---14--12-----------------------------0---x-0-| 
|--------------------------------------14--12------------------------------| 
|------------------------------------------12--1412p10--12p10-------------| 
|--------------------------------------------------------------12----------| 
 
|---------------------------3-----3------3-------5---53------/12--12------| 
|-------------------------------------------------------------/12-----12---| 
|-2b---2b---2b------0--2/4----/4----/4------4/6------64---4---------------| 
|----------------2---------------------------------------------------------| 
|--------------------------------------------------------------------------| 
|--------------------------------------------------------------------------| 
                                        ~~~~~~~~~~~~~~        1/2 
|-15p12-7--15p12-7--15p12-7--15p12-7---15b------------15--14--14b----14-12-| 
|--------------------------------------------------------------------------| 
|--------------------------------------------------------------------------| 
|--------------------------------------------------------------------------| 
|--------------------------------------------------------------------------| 
|--------------------------------------------------------------------------| 
         ~~~~                                                       1/4 
|-12-----------------------------------------------------------------------| 
|----15b-----15p12----12-12------------------------------------------------| 
|------------------14-------14pb--12-14p12----12---------------------------| 
|------------------------------------------14----14-13-12----12------------| 
|---------------------------------------------------------14----14--10--12-| 
|--------------------------------------------------------------------------| 
                                                                ~~~~~~ 
|-------------------------------------------12----15-----------------------| 
|-12----------12-------14-14b----------15b--15b--------15b--12--15-----15-| 
|-12----------12---14--14-14b--14--12--------------------------------------| 
|----14p12-----------------------------------------------------------------| 
|----------14--------------------------------------------------------------| 
|--------------------------------------------------------------------------| 
                                            ~~~~~~~              1/4 
|---------------14---------14-------14-------------------------------------| 
|-x-15--15---------14----------15-------14---------------------------------| 
|-----------14---------14---------14--------14b----0-14b-12-14--12b--------| 
|-------------------------------------------------------------------14-----| 
|----------------------------------------------------------------------14-| 
|--------------------------------------------------------------------------| 
 
|----------x---------------------------------------------------------------| 
|--0--15------15-----------15----------------------------------------------| 
|--0--14b-----14b--12--12-----12--14--14b--14pb--12----14-12---------------| 
|--0------------------------------------------------14-------14-12---------| 
|------------------------------------------------------------------12-10--| 
|--------------------------------------------------------------------------| 
                                                                Repeat 
once 
|---------|----------------------------------------------------------------| 
|---------|12--12--12--12--12--12-12--12---12-12--12-0-----12--0---12---12-| 
|---------|12--12--12--12--12--12-12--12---12-12--12---0---12----0-12---12'| 
|---------|---------------------------------------------------------------'| 
|-12p10---|----------------------------------------------------------------| 
|-------12|----------------------------------------------------------------| 
                                                       Play until song 
ends 
|--15p12----15p12----15p12----15p12----15p12----15p12----15p12-----15p12---| 
|--------12-------12-------12-------12-------12-------12-------12--------12| 
|-------------------------------------------------------------------------'| 
|-------------------------------------------------------------------------'| 
|--------------------------------------------------------------------------| 
|--------------------------------------------------------------------------| 
 
 
_______________________________________________________ 
Contribuição: Carlos slash Batistini Neto([email protected]) 

	  

Full key step upFull key step up
Half key step upHalf key step up
Half key step downHalf key step down
Full key step downFull key step down
Search Paypal
auto scroll beats size up size down change color hide chords drawings
tab show chords e-chords YouTube Clip e-chords hide all tabs e-chords go to top tab