Pink Floyd

home > Pink Floyd

Nervana Tab

Pink Floyd

Difficulty: BeginnerBeginner

by gustsilva

tuner correct add songbook print version text version save to e-mail
chordsukulelecavacokeyboardtabbassdrumsharmonicsflute Guitar Pro
chords

Nervana

  		

Intro 
e|---------------------------------------------0--0--3--0---3p0---------------------| 
B|---------------------------------------------0--1--1--1---1-----------1-----------| 
G|-----------2-2p0---2-2p0---2-2p0-2--2~---2-------------------------0--0-----------| 
D|--------2--------2-------2----------2~---2---------------------/3--3--3---------2-| 
A|-12/-0--0---------------------------0~---0--------------------------------12/-0-0-| 
E|----------------------------------------------------------------------------------| 

e|---0-0-3-3-3---0--------------| 
B|---0-1-1-1-1---1---1-1---3-3--| 
G|-------------------0-0---0-0--| 
D|-----------------2-3-3--/5-5--| 
A|-0----------------------------| 
E|------------------------------| 

e|-------------------------------| 
B|-------------------------------| 
G|-------------------------------| 
D|---5-5-5-5-5-5-5--5--5--5-5-5--| 
A|---5-5-5-5-5-5-5--5--5--5-5-5--| 
E|-0-3-3-3-3-3-3-3--3--3--3-3-3--| 

Verse 
e|----------------------------------------------------------------------------------| 
B|----------------------------------------------------------------------------------| 
G|----------------------------------------------------------------------------------| 
D|----------------------------------------------------------------------------------| 
A|---3---5--5--5-7-3-5-----------3---5--5--5-7-3-5-----------3---5--5--5-7-3-5------| 
E|-5---5---------------5--5--5-5---5---------------5--5--5-5---5---------------5--5-| 

e|----------------------------------------------------------------| 
B|----------------------------------------------------------------| 
G|----------------------------------------------------------------| 
D|-------5-5-5-5-5-5-5-5-7--7--7-7--------5-5-5-5-5-5-5-7--7--7-7-| 
A|-------5-5-5-5-5-5-5-5-7--7--7-7--------5-5-5-5-5-5-5-7--7--7-7-| 
E|-5-7-5-3-3-3-3-3-3-3-3-5--5--5-5--5-7-5-3-3-3-3-3-3-3-5--5--5-5-| 

Chorus 
e|------------------------------------------------------------------------------------------| 
B|------------------------------------------------------------------------------------------| 
G|-5-5-5-5-5-5-5--5-4-5-4-5-4-5-6-7-7-7-7-7-7--7-7-7-7--------------------------------------| 
D|-5-5-5-5-5-5-5--5-4-5-4-5-4-5-6-7-7-7-7-7-7--7-7-7-7---------3-3-3-3-3-3--3-3-3-3-3-3-3-4-| 
A|-3-3-3-3-3-3-3--3-2-3-2-3-2-3-4-5-5-5-5-5-5--5-5-5-5-8-7-5-3-3-3-3-3-3-3--3-3-3-3-3-3-3-4-| 
E|-------------------------------------------------------------1-1-1-1-1-1--1-0-1-0-1-0-1-2-| 

e|-----------------------------------------------------------| 
B|-----------------------------------------------------------| 
G|-7-7-7-7-7-7--7-7-7-7--------------------------------------| 
D|-7-7-7-7-7-7--7-7-7-7---------3-3-3-3-3-3--3-3-3-3-3-3-3-4-| 
A|-5-5-5-5-5-5--5-5-5-5-8-7-5-3-3-3-3-3-3-3--3-3-3-3-3-3-3-4-| 
E|------------------------------1-1-1-1-1-1--1-0-1-0-1-0-1-2-| 
	  

Search Paypal
auto scroll beats size up size down change color hide chords drawings
tab show chords e-chords YouTube Clip e-chords hide all tabs e-chords go to top tab