Pink Floyd

home > Pink Floyd

money (solo) Tab

Pink Floyd

Difficulty: BeginnerBeginner

by WhatsBaraNofu

tuner correct add songbook print version text version save to e-mail
chordsukulelecavacokeyboardtabbassdrumsharmonicsflute Guitar Pro
chords

money (solo)

  		Este e o riff principal da musica. 
 
e|---------------- 
b|---------------- 
g|---4------------ (8x) 
d|-----4--------0- 
a|-2-----2--0-2--- 
E|---------2------ 
 
e|------------------------------------------------------ 
b|------------------------------------------------------ 
g|--------------------4--------------------------------- 
d|----0-----------0-----4----------0-4-4----------4-3-2- 
a|-2-----2----0-2---2-----2---0-2---------4---0-4------- 
E|---------2----------------2---------------2----------- 
 
e|-------------- 
b|-------------- 
g|-------------- 
d|-----------0-- 
a|-2-----0-2---- 
E|---0-3-------- 

	  

Search Paypal
auto scroll beats size up size down change color hide chords drawings
tab show chords e-chords YouTube Clip e-chords hide all tabs e-chords go to top tab