Pink Floyd

home > Pink Floyd

In the Flesh? Tab

Pink Floyd

Difficulty: EasyEasy

by ledzep

tuner correct add songbook print version text version save to e-mail
chordsukulelecavacokeyboardtabbassdrumsharmonicsflute Guitar Pro
chords

In the Flesh?

  		Introdução Parte 1 
E|-------------------------------------------|------------------------------------ 
B|-------------------------------------------|------------------------------------ 
G|--------------------------4-5----12--7-9---|-------------solo------------------- 
D|--2-2--------4-----5--7---4-5----12--7-9---|------------------------------------ 
A|--2-2--------4-----5--7---2-3----10--5-7---|------------------------------------ 
E|--0-0--------2-----3--5--------------------|------------------------------------ 
Parte 2 
E|-------------------------------------------------------------------------------- 
B|-------------------------------------------------------------------------------- 
G|--7--7-7--9--9-9--10--10-10--9--9-9--------------------------------------------- 
D|--7--7-7--9--9-9--10--10-10--9--9-9----x2--------------------------------------- 
A|--5--5-5--7--7-7--8---8--8---7--7-7--------------------------------------------- 
E|-------------------------------------------------------------------------------- 
 
Power Acorde  Parte 3                             
 A C# B A G# F# D C# B A - 2X 
 A C# B A Bb B D C# B C C# E D C#  
                             
 
  
A                              D  
So ya thought ya might like to go to the show  
A  
To feel the warm thrill of confusion  
     D  
That space cadet glow  
A  
Tell me is something eluding you sunshine?  
Bm                       
Is this not what you expected to see?  
       C#m  
If you wanna find out what's behind these cold eyes?  
       E  
You'll just have to claw your way through this disguise  
 
Repete parte 3 
Final depois do C# da parte 3 
|--------------------------------------------|------ 
|--------------------------------------------|------ 
|--------------------------------------------|------ 
|--2----------------------------7*---criança-|------ 
|--2-repete varias veces* ------7------------|------ 
|--0----------------------------5------------|------ 
Eu sou uruguaio mas qualquer dúvida escrevam: 
[email protected] 
 
 

	  

Full key step upFull key step up
Half key step upHalf key step up
Half key step downHalf key step down
Full key step downFull key step down
Search Paypal
auto scroll beats size up size down change color hide chords drawings
tab show chords e-chords YouTube Clip e-chords hide all tabs e-chords go to top tab