Pink Floyd

In The Flash (solo) Tab

Pink Floyd

Difficulty: IntermediateIntermediate

by Thuyan%21%21

tuner correct add songbook print version text version save to e-mail
chordsukulelecavacokeyboardtabbassdrumsharmonicsflute Guitar Pro
close

there isn't a video lesson for this song

request
chords

In The Flash (solo)

  		E|------------------------------------------------------- 
B|------------------------------------------------------- 
G|------------------------------------------------------- 
D|------------------------------------------------------- 
A|--0------4-------2--------0---------------------------- 
E|---------------------------------4--------2------------ 
 
 
E|------------------------------------------------------- 
B|------------------------------------------------------- 
G|------------------------------------------------------- 
D|------------------------------------------------------- 
A|--5------4-------2--------0---------------------------- 
E|------------------------------------------------------- 
 
 
E|------------------------------------------------------- 
B|------------------------------------------------------- 
G|------------------------------------------------------- 
D|------------------------------------------------------- 
A|--------4-------2--------0----------------------------- 
E|---------------------------------4--------2------------ 
 
 
E|------------------------------------------------------- 
B|------------------------------------------------------- 
G|------------------------------------------------------- 
D|------------------------------------------------------- 
A|--5------4-------2--------0---------------------------- 
E|------------------------------------------------------- 
 
 
E|------------------------------------------------------- 
B|------------------------------------------------------- 
G|------------------------------------------------------- 
D|------------------------------------------------------- 
A|--------4-------2--------0------------1----2----------- 
E|------------------------------------------------------- 
 
 
E|------------------------------------------------------- 
B|------------------------------------------------------- 
G|------------------------------------------------------- 
D|------------------------------------------------------- 
A|--5------4-------2--------3--4------------------------- 
E|------------------------------------------------------- 
 
 
E|------------------------------------------------------- 
B|------------------------------------------------------- 
G|------------------------------------------------------- 
D|------------------------------------------------------- 
A|--7------5-------4--------0---------------------------- 
E|--------------------------------0--------------------- 
 
(Vocal) 
Ohhhhhhh.... 
 
Ai galera essa tablatura pode ser usada tanto no baixo quanto em um violão ou guitarra!!! 
VLW 1 abraço!!!!!!!Qualquer duvida  
[email protected] 
	  

Search Paypal
auto scroll beats size up size down change color hide chords drawings
tab show chords e-chords YouTube Clip e-chords hide all tabs e-chords go to top tab

share with facebook