Pink Floyd

home > Pink Floyd

Hey you (intro) Tab

Pink Floyd

Difficulty: AdvancedAdvanced

by WhatsBaraNofu

tuner correct add songbook print version text version save to e-mail
chordsukulelecavacokeyboardtabbassdrumsharmonicsflute Guitar Pro
chords

Hey you (intro)

  		e|------------------- 
b|-7------8-----8---- 
g|-----9----9-----9-- (2x) 
d|---9--------9------ 
a|------------------- 
E|------------------- 
 
e|--------5------5----- 
b|-5--------6---------- 
g|-----7------7-----7--(2x) 
d|---7----------------- 
a|--------------------- 
E|--------------------- 
 
(2x tudo) 
 
e|-------2------------- 
b|-2-------3----------- 
g|-----4--------------- 
d|---4----------------- 
a|--------------------- 
E|--------------------- 

	  

Search Paypal
auto scroll beats size up size down change color hide chords drawings
tab show chords e-chords YouTube Clip e-chords hide all tabs e-chords go to top tab